Bohemia Suburbana - Bolsas De Te tab

*************************************************
* Bohemia Suburbana                             *
* Bolsas de te                                  *
* www.rockchapin.com                            *
*************************************************

BOLSAS DE TE
BOHEMIA SUBURBANA

IntroSomos dos bolsas de t? en una misma taza de f?|-----------------||-----------------||-----------------||---4-----4-------||-2---2-2---2-2---||-----------------|
|--------------------||--------------------||---1-----1h2p1------||-3---3-3------3-3/4-||--------------------||--------------------|
B5 C#5 Escupo al suelo y miro al cielo B5 C#5 y de esta forma me desvelo F#5 Em A5 B5 Me desvelo Me desvelo F#5 Em A5 B5 ooooaaa ooaaaaa oaaaaa oaaoaoaoa Dm5 A5 Em Cm5 Nunca talvez nos dijo el viento Dm5 A5 Em Cm5 El secreto de venir y alejarse sin sufrir Dm5 A5 Em Cm5 Nunca aprendimos de un salm?n a luchar con Dm5 A5 Em Cm5 pasion por los caudales de los ideales Dm5 A5 Em Cm5 De los ideales B5 C#m B5 C#5 No me mires asi no fui yo quien apag? las luces B5 C#5 B5 C#5 Escupo al suelo y miro al cielo y de ?sta forma me desvelo F#5 Em A5 B5 Me desvelo me desvelo F#5 Em A5 B5 oaoaoaoa oaoaoaoo F#5 Em A5 B5 uuuuuhhhh aaaahh eyeeyeyeye
Solo|12-12-12-12h14-12-------------------||------------------14-12-------------||------------------------14-11-------||------------------------------11-14-||------------------------------------||------------------------------------|
-----------------------|-----------------10-12-|---------9----11-------|-9-10-11---11----------|-----------------------|-----------------------|
-------------------------------------18-19-|-15-18-18-15-18-18-15-18-18-15-18-15-------|-------------------------------------------|-------------------------------------------|-------------------------------------------|-------------------------------------------|
-18-16-14-16-14-------------|----------------15-13-------|----------------------15-12-|----------------------------|----------------------------|----------------------------|
-12-14-------------------------------|-------14-11-14-13-11-13-11-13/14-14-|-------------------------------------|-------------------------------------|-------------------------------------|-------------------------------------|
---------------------------------|------12-13-12----------12-13-12-|-11-14---------14-11-14----------|---------------------------------|---------------------------------|---------------------------------|
----------------------------------|----------12-13-14-13-12-10-12-10-|-14-11-14-------------------------|----------------------------------|----------------------------------|----------------------------------|
--------------------------------|--------------------------------|-7-9-11-12-14-12-11-12-11-12/14-|--------------------------------|--------------------------------|--------------------------------|
-------------------------------------|-------------------------------------|-14-16-17-16-14-16-14-12-------------|-------------------------14-12-14-12-|-------------------------------------|-------------------------------------|
---------------------------|---------------------------|---------------------12-11-|-14-12-14/19-12-14-12------|---------------------------|---------------------------|
---------------------------------|---------------------------------|----------12-11------------------|-12-14-12------14-12-14-12-14-12-|---------------------------------|---------------------------------|
-------------15-15-15-14-14-14-|-12-12-12/13-------------------|-------------------------------|-------------------------------|-------------------------------|-------------------------------|
-12-12-12----------------------------|----------15-15-15-13-13-13-12-12-12-|-------------------------------------|-------------------------------------|-------------------------------------|-------------------------------------|
-------12-15-12-------12-15-12-------------|-13-12----------13-12----------13-12-10-12-|-------------------------------------------|-------------------------------------------|-------------------------------------------|-------------------------------------------|
TRANSCRIBED BY VIUDA NEGRA VIUDANEGRA18@HOTMAIL.COM
Tap to rate this tab
 
# A B C D E F G H I J K L M N O P Q R S T U V W X Y Z