Bolt Thrower – Behind Enemy Lines tab

-------------------------------------------------------------------------------
			BEHIND ENEMY LINES - Bolt Thrower
-------------------------------------------------------------------------------
Tabbed by: Rockstar_imn
Email: RRockstar90c@aol.com

Tuning: C

Artist: Bolt Thrower
Song: Behind Enemy Lines
Album: Mercenary

|(0) Let Ring
| ~  Vibrato
| *  Pick Squeal
| b  Bend
===============================================================================

GUITAR 1 (Both Guitars At First)|--------------------||--------------------||--------------------||-3------------------||-1-------3-2--2-1---||---------1(0)-----4-| x20
GUITAR 2|--------------------||--------------------||--------------------||-8---6--------9-8-6-||--------8-7---------||--------------------| x8
BOTH GUITARS|-----------------------------------------------------------||-----------------------------------------------------------||-----------------------------------------------------------||-----------------------------------------------------------||-111111---------22111111-----------------------22244422222-||-------44440044--------444400444400000000333300------------| x4
GUITAR 1 (Both Guitars At First)|--------------------||--------------------||--------------------||-3------------------||-1-------3-2--2-1---||---------1(0)-----4-| x12
GUITAR 2|--------------------||--------------------||--------------------||-8---6--------9-8-6-||--------8-7---------||--------------------| x8
BOTH GUITARS|-----------------------------------------------------------||-----------------------------------------------------------||-----------------------------------------------------------||-----------------------------------------------------------||-111111---------22111111-----------------------22244422222-||-------44440044--------444400444400000000333300------------| x4
GUITAR 1|------------------------------||------------------------------||------------------------------||----------------9--9----------||-8--------------7--7----------||-6----------------------------| x4
GUITAR 2|------------------------------||------------------------------||----------------4--4--4-5-4-4-||----------------2--2--2-3-2-2-||-8--6--8--6--5----------------||-6--4--6--4--3----------------| x4
BOTH GUITARS|------------------------------||------------------------------||----------------4--4--4-5-4-4-||----------------2--2--2-3-2-2-||-8--6--8--6--5----------------||-6--4--6--4--3----------------| x4
BOTH GUITARS|------------------------------||------------------------------||------------------------------||------------------------------||-8--6--8--6--5--2--2--2-3-2-2-||-6--4--6--4--3--0--0--0-1-0-0-| x4
GUITAR 1 (Rhythm Guitar, Behind The Solo)|------------------------------||------------------------------||------------------------------||------------------------------||-8--6--8--6--5--2--2--2-3-2-2-||-6--4--6--4--3--0--0--0-1-0-0-| x4
|--------------------||--------------------||--------------------||-3------------------||-1-------3-2--2-1---||---------1(0)-----4-| x4
|-----------------------------------------------------------||-----------------------------------------------------------||-----------------------------------------------------------||-----------------------------------------------------------||-111111---------22111111-----------------------22244422222-||-------44440044--------444400444400000000333300------------| X4
GUITAR 2 - SOLO:|-----------------------------------------------------------||-11~~~~~~~~~~~~~11b-----------11~~~~~~~~~~~~~11b-----------||-----------------------------------------------------------||-----------------------------------------------------------||-----------------------------------------------------------||-----------------------------------------------------------| * * * *
|------------------------------------------------||-11-9-11b---9--11-9-11b---11-9-11b---9-11-9-11b-||------------------------------------------------||------------------------------------------------||------------------------------------------------||------------------------------------------------|
|----------------------------11-10--------------------||------------11-9b---11-9-11----------11-9-11-12-11-9-||-7b---8-7-8------------------------------------------||-----------------------------------------------------||-----------------------------------------------------||-----------------------------------------------------|
|----------------------------11-10--------------------||------------11-9b---11-9-11----------11-9-11-12-11-9-||-7b---8-7-8------------------------------------------||-----------------------------------------------------||-----------------------------------------------------||-----------------------------------------------------|
|--------------------------------------------------------------------------||-11-9----9-11-11-11b--9-11b-11b--9-11-9-12--12--12--12-14--12-14-15-12-14-||------10------------------------------------------------------------------||--------------------------------------------------------------------------||--------------------------------------------------------------------------||--------------------------------------------------------------------------|
|--------------------------------------------------------------------------||-11-9----9-11-11-11b--9-11b-11b--9-11-9-12--12--12--12-14--12-14-15-12-14-||------10------------------------------------------------------------------||--------------------------------------------------------------------------||--------------------------------------------------------------------------||--------------------------------------------------------------------------|
|-------------------------------------------------------------------------------||-15---12-----------15---12-------------9-11-12---15-12-15--12-15-12-15-12-15b--||----------15-13-15----------15-13-15-9-----------------------------------------||-------------------------------------------------------------------------------||-------------------------------------------------------------------------------||-------------------------------------------------------------------------------|
|-------------------------------------------------------------------------------||-15---12-----------15---12-------------9-11-12---15-12-15--12-15-12-15-12-15b--||----------15-13-15----------15-13-15-9-----------------------------------------||-------------------------------------------------------------------------------||-------------------------------------------------------------------------------||-------------------------------------------------------------------------------|
|-------------------------------||-11b---------------------------||-------------------------------||-------------------------------||-------------------------------||-------------------------------|
Both Guitars (Guitar 2 comes in after last note in the solo drifts a while)|--------------------||--------------------||--------------------||-8---6--------9-8-6-||--------8-7---------||--------------------| X8
|-------------------------||-------------------------||-------------------------||-3-----------------------||-1-----------------------||-------------------------|
Please rate this tab:
x1.0