Bolt Thrower – Lest We Forget tab

  L E S T   W E   F O R G E T - BOLT THROWER - ...For Victory - Earache 1994
                 Play power triads with marked root notes (*)
                      Tuning (Low - High):  Db Gb B E Ab
------------------------------------------------------------------------------

A|-------------*---------------------*--*--*-||-------------------------------------------||-------------------------------------------||-------------------------------------------||-0-0-0-0-0-0-3--0-0-0-0-0--0-0-0-0-4--3--3-|
|-------------*------------------------------| |--------------------------------------------| |------------------------3-3-3-3-3-3-2--0----| |------------------------------------------1-| |-0-0-0-0-0-0-3--0-0-0-0---------------------|
B |-*-| B|-----|S |---| a|-----|l
Repeat A |---| s|-----|i Repeat A x4 |---| s|-----|d |-0-| |-10\-|e
|-------*----*-*-*-*-*-*-|-------*----*-*-*-*-*-*-|-------*----*-*-*-------||------------------------|------------------------|------------------------||-2-0---0--2-3-----------|-2-0---0--2-3-----------|-2-0---0--2-3-----3-0-3-||-----1------------------|-----1------------1---1-|-----1------------------||--------------0-0-0-0-0-|--------------0-0---3---|--------------0-0-------| [1 & 3] [2] [4]
Repeat A x4
C [x2] (Double-pick each note)|-*-------------------------------*-------------------------*-*-*-||-----------------------------------------------------------------||-----------------------------------------------------------------||-----------------------------------------------------------------||-0-0-1-0-1-0-0-1-0-0-0-1-1-0-1-3-0-0-1-0-1-0-0-4-4-4-3-3-1-0-1-3-|
Repeat C twice
D [x2]|-*------------*-----------*-*---*------------*-----------*-*-||-------------------------------------------------------------||-------------------------------------------------------------||-------------------------------------------------------------||-0------------6--0-0-0-0--7-6---0------------6--0--4--6--7-6-|
| ||----------------------------------1--------------------------||-----3-3-3-4--3-----1--3--4-3-------3-3-3-4--3-----1--3--4-3-||-----------------2------------------------------2------------||-------------------------------------------------------------||-------------------------------------------------------------|
E [x4]|-----------------------------------------------------------------||-----------------------------------------------------------------||-----------------------------------------------------------------||-----------------------------------------------------------------||-0-0-0-0-6-6-6-6-6-0-0-4-4-6-6-6-6-0-0-4-4-6-6-6-6-0-7-7-6-6-6-6-|
Repeat D, Repeat C twice
F [x4]|--------------------------------||---4-3-0-3-4-0-4-6-0-7-6-0-7-6~-||-2------------------------------||--------------------------------||--------------------------------|
| | Repeat E twice, Repeat F|-*-----------------*------------||--------------------------------||--------------------------------||---------------2-4---------5-4~-||-0-----------3-----3------------|
[x4]|---6-5---6^5----------------------||-4-----7-----7-6-4-6-7-6-4-6-4----||-------------------------------5~-||----------------------------------||----------------------------------|
| ||-*-------------------*------------||----------------------------------||----------------------------------||-----------------2-4---------5-4~-||-0-------------3-----3------------|
[x2]|--------------------------------||---4-3-0-3-4-0-4-6-7-6-4-6-7-6~-||-2------------------------------||--------------------------------||--------------------------------|
| ||-*-----------------*------------||--------------------------------||--------------------------------||---------------2-4---------5-4~-||-0-----------3-----3------------|
[x2]|---6-5---6^5----------------------||-4-----7-----7-6-4-6-7-6-4-6-7-6~-||----------------------------------||----------------------------------||----------------------------------|
| | Repeat C three times, Repeat B|-*-------------------*------------||----------------------------------||----------------------------------||-----------------2-4---------5-4~-||-0-------------3-----3------------|
------------------------------------------------------------------------------ Mike Reeves
Please rate this tab:
x1.0