Bon Jovi - One Step Closer tab version 2

This is a great song, from an album that was only said to be bad because it wasn't normal
Bon Jovi.

These are the chords for later in the song

          F5                   C5                   D5                   Bb5
      1 3 x x x x          x 3 5 x x x          x x 0 2 x x          x 1 3 x x x

Intro Q=96 4/4 Gtr I|-----------------------|-------------------------||-------------------5---|--------6-----------3----||-------2-------------5-|-----------7-----------3-||----------3-----5------|-----7------------3------||----3--------3---------|--5------------1---------||-1---------------------|-------------------------|
|
| Gtr II|-----------------------|-------------------------||---13-13-13-13-11-10-8-|-(8)---10----------------||-----------------------|----------10-(10)---9-10-||-----------------------|-------------------------||-----------------------|-------------------------||-----------------------|-------------------------|
|--------------------------|-------------------------|||----------------------5---|--------6-----------3----|||----------2-------------5-|-----------7-----------3-|||-------------3-----5------|-----7------------3------|||-------3--------3---------|--5------------1---------|||---1----------------------|-------------------------||
|
|--------------------------|-------------------------|||------13-13-13-13-11-10-8-|-(8)---10----------------|||-(10)---------------------|----------10-(10)---9-10-|||--------------------------|-------------------------|||--------------------------|-------------------------|||--------------------------|-------------------------||
Verse|--------------------|-----------------||----------------5---|-----6-------3---||--------2---------5-|-------7-------3-||----------3---5-----|---7-------3-----||------3-----3-------|-5-------1-------||---1----------------|-----------------|
|
|--------------------|-----------------||--------------------|-----------------||-(10)---------------|-----------------||--------------------|-----------------||--------------------|-----------------||--------------------|-----------------|
|-----------------|----------------------||-------------5---|-----6--------3-------||-----2---------5-|-------7------------3-||-------3---5-----|---7-------3----------||---3-----3-------|-5-------1------------||-1---------------|----------------------|
|
| Gtr III| <|-----------------|----------------------||-----------------|-------------13b15====||-----------------|----------------------||-----------------|----------------------||-----------------|----------------------||-----------------|----------------------|
|--------------------------|-----------------||----------------------5---|-----6-------3---||-------------2----------5-|-------7-------3-||----------------3---5-----|---7-------3-----||--------3---------3-------|-5-------1-------||---1----------------------|-----------------|
|
| >|--------------------------|-----------------||-(13)r(13)-(13)-----------|-----------------||--------------------------|-----------------||--------------------------|-----------------||--------------------------|-----------------||--------------------------|-----------------|
|-----------------|-----------------||-------------5---|-----6-------3---||-----2---------5-|-------7-------3-||-------3---5-----|---7-------3-----||---3-----3-------|-5-------1-------||-1---------------|-----------------|
|
|-----------------|-----------------||-----------------|-----------------||-----------------|-----------------||-----------------|-----------------||-----------------|-----------------||-----------------|-----------------|
|-----------------|-----------------|-----------------|-----------------|||-----5-------5---|-----6-------6---|-----3-------3---|-5-5-5-5-5-5-5-5-|||-------5-------5-|-------7-------7-|-------3-------3-|-5-5-5-5-5-5-5-5-|||---5-------5-----|---7-------7-----|---3-------3-----|-5-5-5-5-5-5-5-5-|||-3-------3-------|-5-------5-------|-1-------1-------|-3-3-3-3-3-3-3-3-|||-----------------|-----------------|-----------------|-----------------||
|
|-----------------|-----------------|-----------------|-----------------|||-----------------|-----------------|-----------------|-----------------|||-----------------|-----------------|-----------------|-----------------|||-----------------|-----------------|-----------------|-----------------|||-----------------|-----------------|-----------------|-----------------|||-----------------|-----------------|-----------------|-----------------||
Chorus|---------------------|-1-1-1-1-1-----------||-----------1-1-1-1-1-|-3-3-3-3-3-3-3-3-3-3-||-2-2-2-2-2-0-0-0-0-0-|-2-2-2-2-2-3-3-3-3-3-||-3-3-3-3-3-2-2-2-2-2-|-0-0-0-0-0-3-3-3-3-3-||-3-3-3-3-3-3-3-3-3-3-|-----------1-1-1-1-1-||-1-1-1-1-1-----------|---------------------|
|
|---------------------|---------------------||---------------------|---------------------||---------------------|---------------------||-----------5---------|-7---------3---------||-3---------3---------|-5---------1---------||-1-------------------|---------------------|
|---------------------|-1-1-1-1-1------------||-----------1-1-1-1-1-|-3-3-3-3-3-3-3-3-3-3--||-2-2-2-2-2-0-0-0-0-0-|-2-2-2-2-2-3-3-3-3-3--||-3-3-3-3-3-2-2-2-2-2-|-0-0-0-0-0-3-3-3-3-3--||-3-3-3-3-3-3-3-3-3-3-|-----------1-1-1-1-1--||-1-1-1-1-1-----------|----------------------|
|
|---------------------|----------------------||---------------------|----------------------||---------------------|----------------------||-----------5---------|-7---------3----------||-3---------3---------|-5---------1----------||-1-------------------|----------------------|
|---------------------|-1-1-1-1-1-----------||-----------1-1-1-1-1-|-3-3-3-3-3-3-3-3-3-3-||-2-2-2-2-2-0-0-0-0-0-|-2-2-2-2-2-3-3-3-3-3-||-3-3-3-3-3-2-2-2-2-2-|-0-0-0-0-0-3-3-3-3-3-||-3-3-3-3-3-3-3-3-3-3-|-----------1-1-1-1-1-||-1-1-1-1-1-----------|---------------------|
|
|---------------------|---------------------||---------------------|---------------------||---------------------|---------------------||-----------5---------|-7---------3---------||-3---------3---------|-5---------1---------||-1-------------------|---------------------|
|---------------------|-1-1-1-1-1------------|||-----------1-1-1-1-1-|-3-3-3-3-3-3-3-3-3-3--|||-2-2-2-2-2-0-0-0-0-0-|-2-2-2-2-2-3-3-3-3-3--|||-3-3-3-3-3-2-2-2-2-2-|-0-0-0-0-0-3-3-3-3-3--|||-3-3-3-3-3-3-3-3-3-3-|-----------1-1-1-1-1--|||-1-1-1-1-1-----------|----------------------||
|
|---------------------|----------------------|||---------------------|----------------------|||---------------------|----------------------|||-----------5---------|-7---------3----------|||-3---------3---------|-5---------1----------|||-1-------------------|----------------------||
Pre-Verse|-----------------------|-------------------------||-------------------5---|--------6-----------3----||-------2-------------5-|-----------7-----------3-||----------3-----5------|-----7------------3------||----3--------3---------|--5------------1---------||-1---------------------|-------------------------|
|
| Gtr II|-----------------------|-------------------------||---13-13-13-13-11-10-8-|-(8)---10----------------||-----------------------|----------10-(10)---9-10-||-----------------------|-------------------------||-----------------------|-------------------------||-----------------------|-------------------------|
|
| Gtr IV| PM------------------------------------------------||-----------------------|---------------------------||-----------------------|---------------------------||-----------------------|---------------------------||-------------5--5--5-5-|--7--7--7--7---3--3-3--3---||-3--3--3--3--3--3--3-3-|--5--5--5--5---1--1-1--1---||-1--1--1--1------------|---------------------------|
|--------------------------|-------------------------|||----------------------5---|--------6-----------3----|||----------2-------------5-|-----------7-----------3-|||-------------3-----5------|-----7------------3------|||-------3--------3---------|--5------------1---------|||---1----------------------|-------------------------||
|
|--------------------------|-------------------------|||------13-13-13-13-11-10-8-|-(8)---10----------------|||-(10)---------------------|----------10-(10)---9-10-|||--------------------------|-------------------------|||--------------------------|-------------------------|||--------------------------|-------------------------||
|
|-------------------------------------------------------||--------------------------|----------------------------||--------------------------|----------------------------||--------------------------|----------------------------||----------------5--5--5-5-|--7--7--7--7---3--3-3--3----||---3---3--3--3--3--3--3-3-|--5--5--5--5---1--1-1--1----||---1---1--1--1------------|----------------------------|
Verse|--------------------|-----------------|-----------------|-----------------||----------------5---|-----6-------3---|-------------5---|-----6-------3---||--------2---------5-|-------7-------3-|-----2---------5-|-------7-------3-||----------3---5-----|---7-------3-----|-------3---5-----|---7-------3-----||------3-----3-------|-5-------1-------|---3-----3-------|-5-------1-------||---1----------------|-----------------|-1---------------|-----------------|
|
| Gtr III|--------------------|-----------------|-----------------|-----------------||--------------------|-----------------|-----------------|-----------------||-(10)---------------|-----------------|-----------------|-----------------||--------------------|-----------------|-----------------|-----------------||--------------------|-----------------|-----------------|-----------------||--------------------|-----------------|-----------------|-----------------|
|
| >|--------------------|-----------------|-----------------|-----------------||--------------------|-----------------|-----------------|-----------------||-^10----------------|-----------------|-----------------|-----------------||-^10----------------|-----------------|-----------------|-----------------||-^-8----------------|-x-x-x-x-x-x-x-x-|-x-x-x-x-x-x-x-x-|-x-x-x-x-x-x-x-x-||--------------------|-x-x-x-x-x-x-x-x-|-x-x-x-x-x-x-x-x-|-x-x-x-x-x-x-x-x-|
|-----------------|-----------------|-----------------|-----------------||-------------5---|-----6-------3---|-------------5---|-----6-------3---||-----2---------5-|-------7-------3-|-----2---------5-|-------7-------3-||-------3---5-----|---7-------3-----|-------3---5-----|---7-------3-----||---3-----3-------|-5-------1-------|---3-----3-------|-5-------1-------||-1---------------|-----------------|-1---------------|-----------------|
|
|-----------------|-----------------|-----------------|-----------------||-----------------|-----------------|-----------------|-----------------||-----------------|-----------------|-----------------|-----------------||-----------------|-----------------|-----------------|-----------------||-----------------|-----------------|-----------------|-----------------||-----------------|-----------------|-----------------|-----------------|
|
|-----------------|-----------------|-----------------|-----------------||-----------------|-----------------|-----------------|-----------------||-----------------|-----------------|-----------------|-----------------||-----------------|-----------------|-----------------|-----------------||-x-x-x-x-x-x-x-x-|-x-x-x-x-x-x-x-x-|-x-x-x-x-x-x-x-x-|-x-x-x-x-x-x-x-x-||-x-x-x-x-x-x-x-x-|-x-x-x-x-x-x-x-x-|-x-x-x-x-x-x-x-x-|-x-x-x-x-x-x-x-x-|
|-----------------|-----------------|-----------------|-----------------|||-----5-------5---|-----6-------6---|-----3-------3---|-5-5-5-5-5-5-5-5-|||-------5-------5-|-------7-------7-|-------3-------3-|-5-5-5-5-5-5-5-5-|||---5-------5-----|---7-------7-----|---3-------3-----|-5-5-5-5-5-5-5-5-|||-3-------3-------|-5-------5-------|-1-------1-------|-3-3-3-3-3-3-3-3-|||-----------------|-----------------|-----------------|-----------------||
|
|-----------------|-----------------|-----------------|-----------------|||-----------------|-----------------|-----------------|-----------------|||-5---------------|-7---------------|-3---------------|-5---------------|||-5---------------|-7---------------|-3---------------|-5---------------|||-3---------------|-5---------------|-1---------------|-3---------------|||-----------------|-----------------|-----------------|-----------------||
|
|-----------------|-----------------|-----------------|-----------------|||-----------------|-----------------|-----------------|-----------------|||-5---------------|-7---------------|-3---------------|-5---------------|||-5---------------|-7---------------|-3---------------|-5---------------|||-3---------------|-5---------------|-1---------------|-3---------------|||-----------------|-----------------|-----------------|-----------------||
Chorus|---------------------|-1-1-1-1-1-----------||-----------1-1-1-1-1-|-3-3-3-3-3-3-3-3-3-3-||-2-2-2-2-2-0-0-0-0-0-|-2-2-2-2-2-3-3-3-3-3-||-3-3-3-3-3-2-2-2-2-2-|-0-0-0-0-0-3-3-3-3-3-||-3-3-3-3-3-3-3-3-3-3-|-----------1-1-1-1-1-||-1-1-1-1-1-----------|---------------------|
|
|---------------------|---------------------||---------------------|---------------------||---------------------|---------------------||-----------5---------|-7---------3---------||-3---------3---------|-5---------1---------||-1-------------------|---------------------|
|
|---------------------|---------------------||---------------------|---------------------||---------------------|---------------------||-----------5---------|-7---------3---------||-3---------3---------|-5---------1---------||-1-------------------|---------------------|
|---------------------|-1-1-1-1-1------------||-----------1-1-1-1-1-|-3-3-3-3-3-3-3-3-3-3--||-2-2-2-2-2-0-0-0-0-0-|-2-2-2-2-2-3-3-3-3-3--||-3-3-3-3-3-2-2-2-2-2-|-0-0-0-0-0-3-3-3-3-3--||-3-3-3-3-3-3-3-3-3-3-|-----------1-1-1-1-1--||-1-1-1-1-1-----------|----------------------|
|
|---------------------|----------------------||---------------------|----------------------||---------------------|----------------------||-----------5---------|-7---------3----------||-3---------3---------|-5---------1----------||-1-------------------|----------------------|
|
|---------------------|----------------------||---------------------|----------------------||---------------------|----------------------||-----------5---------|-7---------3----------||-3---------3---------|-5---------1----------||-1-------------------|----------------------|
|---------------------|-1-1-1-1-1-----------||-----------1-1-1-1-1-|-3-3-3-3-3-3-3-3-3-3-||-2-2-2-2-2-0-0-0-0-0-|-2-2-2-2-2-3-3-3-3-3-||-3-3-3-3-3-2-2-2-2-2-|-0-0-0-0-0-3-3-3-3-3-||-3-3-3-3-3-3-3-3-3-3-|-----------1-1-1-1-1-||-1-1-1-1-1-----------|---------------------|
|
|---------------------|---------------------||---------------------|---------------------||---------------------|---------------------||-----------5---------|-7---------3---------||-3---------3---------|-5---------1---------||-1-------------------|---------------------|
|
|---------------------|---------------------||---------------------|---------------------||---------------------|---------------------||-----------5---------|-7---------3---------||-3---------3---------|-5---------1---------||-1-------------------|---------------------|
|---------------------|-1-1-1-1-1------------|||-----------1-1-1-1-1-|-3-3-3-3-3-3-3-3-3-3--|||-2-2-2-2-2-0-0-0-0-0-|-2-2-2-2-2-3-3-3-3-3--|||-3-3-3-3-3-2-2-2-2-2-|-0-0-0-0-0-3-3-3-3-3--|||-3-3-3-3-3-3-3-3-3-3-|-----------1-1-1-1-1--|||-1-1-1-1-1-----------|----------------------||
|
|---------------------|----------------------|||---------------------|----------------------|||---------------------|----------------------|||-----------5---------|-7---------3----------|||-3---------3---------|-5---------1----------|||-1-------------------|----------------------||
|
|---------------------|----------------------|||---------------------|----------------------|||---------------------|----------------------|||-----------5---------|-7---------3----------|||-3---------3---------|-5---------1----------|||-1-------------------|----------------------||
Interlude|-----------------|-----------------------||-6----5-(5)----3-|-(3)---(3)-3-3-3-(3)---||-7--x-5-(5)--x-3-|-(3)---(3)-3-3-3-(3)---||-7--x-5-(5)--x-3-|-(3)---(3)-3-3-3-(3)---||-5--x-3-(3)--x-1-|-(1)---(1)-1-1-1-(1)---||-----------------|-----------------------|
|
|-----------------|-----------------------||-----------------|-----------------------||-----------------|-----------------------||-7--x-5-(5)--x-3-|-(3)-------------------||-5--x-3-(3)--x-1-|-(1)-------------------||-----------------|-----------------------|
|
| PM------------------||-----------------|-------------------------||-----------------|-------------------------||-----------------|-------------------------||-7--x-5-(5)--x-3-|-(3)-3--3--3-3-3--3--3---||-5--x-3-(3)--x-1-|-(1)-1--1--1-1-1--1--1---||-----------------|-------------------------|
|-----------------|-------------------||-6----5-(5)----3-|-(3)---3-3-3-------||-7--x-5-(5)--x-3-|-(3)---3-3-3-------||-7--x-5-(5)--x-3-|-(3)---3-3-3-------||-5--x-3-(3)--x-1-|-(1)---1-1-1-------||-----------------|-------------------|
|
|-----------------|-------------------||-----------------|-------------------||-----------------|-------------------||-7--x-5-(5)--x-3-|-(3)---------------||-5--x-3-(3)--x-1-|-(1)---------------||-----------------|-------------------|
|
| PM--------------||-----------------|---------------------||-----------------|---------------------||-----------------|---------------------||-7--x-5-(5)--x-3-|-(3)-3-3-3-3-3-3-3---||-5--x-3-(3)--x-1-|-(1)-1-1-1-1-1-1-1---||-----------------|---------------------|
|-----------------|-----------------------|||-6----5-(5)----3-|-(3)---(3)-3-3-3-(3)---|||-7--x-5-(5)--x-3-|-(3)---(3)-3-3-3-(3)---|||-7--x-5-(5)--x-3-|-(3)---(3)-3-3-3-(3)---|||-5--x-3-(3)--x-1-|-(1)---(1)-1-1-1-(1)---|||-----------------|-----------------------||
|
|-----------------|-----------------------|||-----------------|-----------------------|||-----------------|-----------------------|||-7--x-5-(5)--x-3-|-(3)-------------------|||-5--x-3-(3)--x-1-|-(1)-------------------|||-----------------|-----------------------||
|
| PM-------------------||-----------------|--------------------------||-----------------|--------------------------||-----------------|--------------------------||-7--x-5-(5)--x-3-|-(3)-3--3--3-3-3--3--3----||-5--x-3-(3)--x-1-|-(1)-1--1--1-1-1--1--1----||-----------------|--------------------------|
Guitar Solo Gtr IV | | | | / / / /
Gtr I|-----------------------------|--1--1--1--1-1---------------||----------------1--1--1--1-1-|--3--3--3--3-3--3--3--3--3-3-||-2--2---2--2-2--0--0--0--0-0-|--2--2--2--2-2--3--3--3--3-3-||-3--3---3--3-3--2--2--2--2-2-|--0--0--0--0-0--3--3--3--3-3-||-3--3---3--3-3--3--3--3--3-3-|----------------1--1--1--1-1-||-1--1---1--1-1---------------|-----------------------------|
|
|-----------------------------|-----------------------------||-----------------------------|-----------------------------||-----------------------------|-----------------------------||----------------5------------|--7-------------3------------||-3--------------3------------|--5-------------1------------||-1---------------------------|-----------------------------|
|
| Gtr V|-----------------------------|-----------------------------||-----------------------------|-----------------------------||---10-(10)-9---(9)-7-(7)-5---|-(5)-3-(3)-2---(2)-0-(0)-----||-----------------------------|-------------------------3-x-||-----------------------------|-----------------------------||-----------------------------|-----------------------------|
F5 C5 D5 Bb5 | | | | / / / /
|---------------------------------|-1-1--1-1-1-----------||-----------------1---1---1---1-1-|-3-3--3-3-3-3-3-3-3-3-||-2---2---2---2-2-0---0---0---0-0-|-2-2--2-2-2-3-3-3-3-3-||-3---3---3---3-3-2---2---2---2-2-|-0-0--0-0-0-3-3-3-3-3-||-3---3---3---3-3-3---3---3---3-3-|------------1-1-1-1-1-||-1---1---1---1-1-----------------|----------------------|
|
|---------------------------------|----------------------||---------------------------------|----------------------||---------------------------------|----------------------||-----------------5---------------|-7----------3---------||-3---------------3---------------|-5----------1---------||-1-------------------------------|----------------------|
|
|---------------------------------|----------------------||---------------------------------|----------------------||-----0-0-------------0-0---------|----------------------||-3s5-5-5-x-x-x-x-3s5-5-5-x-x-x-x-|-3-5-/7-5---3---------||---------------------------------|----------------------||---------------------------------|----------------------|
F5 C5 | | / /
|-----------------------------------------||----------------------1----1-----1---1-1-||-2----2-----2----2--2-0----0-----0---0-0-||-3----3-----3----3--3-2----2-----2---2-2-||-3----3-----3----3--3-3----3-----3---3-3-||-1----1-----1----1--1--------------------|
|
|-----------------------------------------||-----------------------------------------||-----------------------------------------||----------------------5------------------||-3--------------------3------------------||-1---------------------------------------|
|
|-----------------------------------------||-------------------13---11---10-11--13---||---9s10-10-10-10---10---10---10-10--10---||-----------------------------------------||-----------------------------------------||-----------------------------------------|
D5 Bb5 | | / /
|-1--1--1--1-1---------------------||-3--3--3--3-3-3--3-----3-----3--3-||-2--2--2--2-2-3--3-----3-----3--3-||-0--0--0--0-0-3--3-----3-----3--3-||--------------1--1-----1-----1--1-||----------------------------------|
|
|----------------------------------||----------------------------------||----------------------------------||-7------------3-------------------||-5------------1-------------------||----------------------------------|
|
|-x-13-12-10-----------------------||----------------10-13-13-13----10-||----------------------------12----||----------------------------------||----------------------------------||----------------------------------|
F5 C5 D5 Bb5 | | | | / / / /
|---------------------------------------------|-1--1--1--1-1----------------|||-------------------------1-----1------1--1-1-|-3--3--3--3-3-3------3-3-3-3-|||-2-----2-----2-----2--2--0-----0------0--0-0-|-2--2--2--2-2-3------3-3-3-3-|||-3-----3-----3-----3--3--2-----2------2--2-2-|-0--0--0--0-0-3------3-3-3-3-|||-3-----3-----3-----3--3--3-----3------3--3-3-|--------------1------1-1-1-1-|||-1-----1-----1-----1--1----------------------|-----------------------------||
|
|---------------------------------------------|-----------------------------|||---------------------------------------------|-----------------------------|||---------------------------------------------|-----------------------------|||-------------------------5-------------------|-7------------3--------------|||-3-----------------------3-------------------|-5------------1--------------|||-1-------------------------------------------|-----------------------------||
|
|---------------------------------------------|-x-13-12-10---8-10-8-6-6-----|||---10-11-11-11-11-11-11s13-13-13-13-/15-15---|-------------------------8---|||---------------------------------------------|-----------------------------|||---------------------------------------------|-----------------------------|||---------------------------------------------|-----------------------------|||---------------------------------------------|-----------------------------||
Bridge C5 D5 | | / /
|-------------------------|-------------------------||-5-5-5-5-5-(5)-5-5-5-5-5-|-6-6-6-6-6-(6)-6-6-6-6-6-||-5-5-5-5-5-(5)-5-5-5-5-5-|-7-7-7-7-7-(7)-7-7-7-7-7-||-5-5-5-5-5-(5)-5-5-5-5-5-|-7-7-7-7-7-(7)-7-7-7-7-7-||-3-3-3-3-3-(3)-3-3-3-3-3-|-5-5-5-5-5-(5)-5-5-5-5-5-||-------------------------|-------------------------|
|
|-------------------------|-------------------------||-------------------------|-------------------------||-5-----------------------|-7-----------------------||-5-----------------------|-7-----------------------||-3-----------------------|-5-----------------------||-------------------------|-------------------------|
Bb5 C5 | | / /
|-------------------------|------------------|||-3-3-3-3-3-(3)-3-3-3-3-3-|-5-5-5-5-5-(5)----|||-3-3-3-3-3-(3)-3-3-3-3-3-|-5-5-5-5-5-(5)----|||-3-3-3-3-3-(3)-3-3-3-3-3-|-5-5-5-5-5-(5)----|||-1-1-1-1-1-(1)-1-1-1-1-1-|-3-3-3-3-3-(3)----|||-------------------------|------------------||
|
|-------------------------|------------------|||-------------------------|------------------|||-3-----------------------|-5----------------|||-3-----------------------|-5----------------|||-1-----------------------|-3----------------|||-------------------------|------------------||
Chorus|-----------------------|-------------------------||-------------------5---|--------6-----------3----||-------2-------------5-|-----------7-----------3-||----------3-----5------|-----7------------3------||----3--------3---------|--5------------1---------||-1---------------------|-------------------------|
|
|-----------------------|-------------------------||-----------------------|-------------------------||-----------------------|-------------------------||-----------------------|-------------------------||-----------------------|-------------------------||-----------------------|-------------------------|
|
| Gtr II|-----------------------|-------------------------||---13-13-13-13-11-10-8-|-(8)---10----------------||-----------------------|----------10-(10)---9-10-||-----------------------|-------------------------||-----------------------|-------------------------||-----------------------|-------------------------|
Bb5 | /
|--------------------------|------------------------||----------------------5---|--------6-----------3---||----------2-------------5-|-----------7----------3-||-------------3-----5------|-----7------------3-----||-------3--------3---------|--5------------1--------||---1----------------------|------------------------|
|
| <|--------------------------|------------------------||--------------------------|------------------------||--------------------------|------------------------||--------------------------|--7--7--7--7---3--3-3-3-||--------------------------|--5--5--5--5---1--1-1-1-||--------------------------|------------------------|
|
|--------------------------|------------------------||------13-13-13-13-11-10-8-|-(8)---10---------------||-(10)---------------------|----------10-(10)-------||--------------------------|------------------------||--------------------------|------------------------||--------------------------|------------------------|
F5 C5 D5 Bb5 | | | | / / / /
|---------------------|-1-1-1-1-1-----------||-----------1-1-1-1-1-|-3-3-3-3-3-3-3-3-3-3-||-2-2-2-2-2-0-0-0-0-0-|-2-2-2-2-2-3-3-3-3-3-||-3-3-3-3-3-2-2-2-2-2-|-0-0-0-0-0-3-3-3-3-3-||-3-3-3-3-3-3-3-3-3-3-|-----------1-1-1-1-1-||-1-1-1-1-1-----------|---------------------|
|
|---------------------|---------------------||---------------------|---------------------||---------------------|---------------------||-----------5---------|-7---------3---------||-3---------3---------|-5---------1---------||-1-------------------|---------------------|
|
|---------------------|---------------------||---------------------|---------------------||---------------------|---------------------||---------------------|---------------------||---------------------|---------------------||---------------------|---------------------|
F5 C5 D5 Bb5 | | | | / / / /
|---------------------|-1-1-1-1-1------------||-----------1-1-1-1-1-|-3-3-3-3-3-3-3-3-3-3--||-2-2-2-2-2-0-0-0-0-0-|-2-2-2-2-2-3-3-3-3-3--||-3-3-3-3-3-2-2-2-2-2-|-0-0-0-0-0-3-3-3-3-3--||-3-3-3-3-3-3-3-3-3-3-|-----------1-1-1-1-1--||-1-1-1-1-1-----------|----------------------|
|
|---------------------|----------------------||---------------------|----------------------||---------------------|----------------------||-----------5---------|-7---------3----------||-3---------3---------|-5---------1----------||-1-------------------|----------------------|
|
|---------------------|----------------------||---------------------|----------------------||---------------------|----------------------||---------------------|----------------------||---------------------|----------------------||---------------------|----------------------|
F5 C5 D5 Bb5 | | | | / / / /
|---------------------------|--1--1--1--1-1---------------||---------------1--1--1-1-1-|--3--3--3--3-3---3--3-3--3-3-||-2--2--2--2-2--0--0--0-0-0-|--2--2--2--2-2---3--3-3--3-3-||-3--3--3--3-3--2--2--2-2-2-|--0--0--0--0-0---3--3-3--3-3-||-3--3--3--3-3--3--3--3-3-3-|-----------------1--1-1--1-1-||-1--1--1--1-1--------------|-----------------------------|
|
|---------------------------|-----------------------------||---------------------------|-----------------------------||---------------------------|-----------------------------||---------------5-----------|--7--------------3-----------||-3-------------3-----------|--5--------------1-----------||-1-------------------------|-----------------------------|
|
|---------------------------|-----------------------------||---13-13-13---13-11-10-8---|-(8)---10--------------------||---------------------------|----------10---(10)---9-10---||---------------------------|-----------------------------||---------------------------|-----------------------------||---------------------------|-----------------------------|
F5 C5 D5 Bb5 | | | | / / / /
|------------------------------|--1--1--1--1-1----------------||------------------1--1--1-1-1-|--3--3--3--3-3---3--3-3--3-3--||---2---2--2--2-2--0--0--0-0-0-|--2--2--2--2-2---3--3-3--3-3--||---3---3--3--3-3--2--2--2-2-2-|--0--0--0--0-0---3--3-3--3-3--||---3---3--3--3-3--3--3--3-3-3-|-----------------1--1-1--1-1--||---1---1--1--1-1--------------|------------------------------|
|
|------------------------------|------------------------------||------------------------------|------------------------------||------------------------------|------------------------------||------------------5-----------|--7--------------3------------||---3--------------3-----------|--5--------------1------------||---1--------------------------|------------------------------|
|
|------------------------------|------------------------------||------13-13-13---13-11-10-8---|-(8)---10---------------------||-(10)-------------------------|----------10---(10)---9-10----||------------------------------|------------------------------||------------------------------|------------------------------||------------------------------|------------------------------|
F5 C5 D5 Bb5 | | | | / / / /
|------------------------------|--1--1--1--1-1---------------||------------------1--1--1-1-1-|--3--3--3--3-3---3--3-3--3-3-||---2---2--2--2-2--0--0--0-0-0-|--2--2--2--2-2---3--3-3--3-3-||---3---3--3--3-3--2--2--2-2-2-|--0--0--0--0-0---3--3-3--3-3-||---3---3--3--3-3--3--3--3-3-3-|-----------------1--1-1--1-1-||---1---1--1--1-1--------------|-----------------------------|
|
|------------------------------|-----------------------------||------------------------------|-----------------------------||------------------------------|-----------------------------||------------------5-----------|--7--------------3-----------||---3--------------3-----------|--5--------------1-----------||---1--------------------------|-----------------------------|
|
|------------------------------|-----------------------------||------13-13-13---13-11-10-8---|-(8)---10--------------------||-(10)-------------------------|----------10---(10)---9-10---||------------------------------|-----------------------------||------------------------------|-----------------------------||------------------------------|-----------------------------|
F5 C5 D5 Bb5 | | | | / / / /
|------------------------------|--1--1--1--1-1---------------|||------------------1--1--1-1-1-|--3--3--3--3-3---3--3-3-3-3--|||---2---2--2--2-2--0--0--0-0-0-|--2--2--2--2-2---3--3-3-3-3--|||---3---3--3--3-3--2--2--2-2-2-|--0--0--0--0-0---3--3-3-3-3--|||---3---3--3--3-3--3--3--3-3-3-|-----------------1--1-1-1-1--|||---1---1--1--1-1--------------|-----------------------------||
|
|------------------------------|-----------------------------|||------------------------------|-----------------------------|||------------------------------|-----------------------------|||------------------5-----------|--7--------------3-----------|||---3--------------3-----------|--5--------------1-----------|||---1--------------------------|-----------------------------||
|
|------------------------------|-----------------------------|||------13-13-13---13-11-10-8---|-(8)---10--------------------|||-(10)-------------------------|----------10---(10)----------|||------------------------------|-----------------------------|||------------------------------|-----------------------------|||------------------------------|-----------------------------||
Outro D5 C5 Bb5 | | | | | | | | | | | | | | / x / / x / / / / / / / / /
|-----------------|---------------------||-6----5-(5)----3-|-(3)--(3)-3-3-3-(3)--||-7--x-5-(5)--x-3-|-(3)--(3)-3-3-3-(3)--||-7--x-5-(5)--x-3-|-(3)--(3)-3-3-3-(3)--||-5--x-3-(3)--x-1-|-(1)--(1)-1-1-1-(1)--||-----------------|---------------------|
|
|-----------------|---------------------||-----------------|---------------------||-----------------|---------------------||-7--x-5-(5)--x-3-|-(3)-----------------||-5--x-3-(3)--x-1-|-(1)-----------------||-----------------|---------------------|
D5 C5 Bb5 | | | | | | | | / x / / x / / /
|-----------------|------------|--------*||-6----5-(5)----3-|-(3)--------|-(3)----*||-7--x-5-(5)--x-3-|-(3)--------|-(3)----*||-7--x-5-(5)--x-3-|-(3)--------|-(3)----*||-5--x-3-(3)--x-1-|-(1)--------|-(1)----*||-----------------|------------|--------*|
|
|-----------------|------------|--------*||-----------------|------------|--------*||-----------------|------------|--------*||-7--x-5-(5)--x-3-|-(3)--------|-(3)----*||-5--x-3-(3)--x-1-|-(1)--------|-(1)----*||-----------------|------------|--------*|
Tablature Legend ---------------- h - hammer-on p - pull-off b - bend pb - pre-bend r - bend release (if no number after the r, then release immediately) /\ - slide into or out of (from/to "nowhere") s - legato slide S - shift slide - natural harmonic [n] - artificial harmonic n(n) - tapped harmonic ~ - vibrato PM - palm muting
Tap to rate this tab
 
# A B C D E F G H I J K L M N O P Q R S T U V W X Y Z