Bow Down tab with lyrics by Born Of Osiris - Easy chords and tabs for guitar

Born Of Osiris – Bow Down tab

Bow Down (solo) - Born of Osiris
From THE NEW REIGN (2007)

Transcribed by by Mike M. (MetalliKH-602)
Email: metallicaslayer13@yahoo.com

Tuning: Drop C (C G C F A D)

This is the solo part that Gtr 1 (Left Channel) plays from 0:33 to 1:04.  Everything 
to be about right when played along with the song, but if you have any questions or 
just email me.


~~~ ~~~~|-10h12-------------------10-----|----------------------||--------------------------------|--10------------------||--------------------------------|---------12-----------||--------------------------------|----------------------||--------------------------------|----------------------||--------------------------------|----------------------|
~~~~~~~~~~~~~~~~~~~|-----------------------------------|------------------------||-----------------------------------|------------------------||-----------------------------------|---------9--------------||--7------8------10-10b11-----------|-(11)-------------------||-----------------------------------|------------------------||-----------------------------------|------------------------|
~~~~|-------------------10h13---12---10-|---------------------||-----------10h==13-----------------|--13-----------------||--7h==10---------------------------|---------------------||-----------------------------------|---------------------||-----------------------------------|---------------------||-----------------------------------|---------------------|
|---------------------------------------|------------------------||-10------11------13-13b14-(13)---------|-(13)-------------------||---------------------------------------|------------------------||---------------------------------------|------------------------||---------------------------------------|------------------------||----------------------------------------------------------------|
~|----10h12p10---------------|------------------||-------------10------------|------------------||----------------12-10-9----|---------9--------||------------------------12-|--11--12----------||---------------------------|--------------12--||---------------------------|------------------|
~ ~~|-----------------------|-------------------|-------||-----------------------|-------------------|-------||-----------------------|-------------------|-------||-----------------------|-------------------|-11----||-10-(10)h12(10)---8----|--(8)--10--12--14--|-------||-----------------------|-------------------|-------|
~~~~ ~|------10h12p10---------------|------------------||---------------10------------|------------------||------------------12-10-9----|--------7/9-------||-(11)---------------------12-|-11--12------7----||-----------------------------|------------------||-----------------------------|------------------|
~~~~~~~~|--------------|-----------|---------|||--------------|-----------|---------|||--10-----9----|-----------|---------|||--------------|-11--------|-(11)----|||--------------|-----------|---------|||--------------|-----------|---------||
h - hammer-on p - pull-off b - bend /\ - slide into or out of (from/to "nowhere") ~ - vibrato = - hold bend; also acts as connecting device for hammers/pulls () - acciaccatura - grace note
Please rate this tab:
x1.0