Bouncing Souls – Fast Times tab

Title: Fast Times
Artist: Bouncing Souls
Album: Comet (2012)
Tempo = 100
Lead

Legend
L - tied note
x - dead note
h - hammer on/pull off
b - bend
s - slide
~ - vibrato
g - ghost note
> - accentuated note
t - trill
M - palm mute
. - staccato
P - popping (bass)
S - slapping (bass)
+ - tapping
W - wide vibrato
< - fade in
w - whammy bar
= - tremolo picking
v - brush up
^ - brush down
V - pick stroke up
n - pick stroke down


E |----|----------------|-------|----------------|B |----|----------------|-------|----------------|G |----|----------------|-------|----------------|D |----|--9--9--9--9----|--11---|--9--9--9--9----|A |----|--7--6--7--6----|--9----|--7--6--7--6----|E |----|----------------|-------|----------------|
----------------------------------------------------|----------------------------------------------------|----------------------------------------------------|----------------------------------------------------|--4-----------------------4M-4M-4M-4M-4M-4M-4M-4M---|--2-----------------------2M-2M-2M-2M-2M-2M-2M-2M---|
----------------------------------------------------|----------------------------------------------------|----------------------------------------------------|----------------------------------------------------|--xM-xM-9L-9--xM-xM-9L-9--xM-xM-9L-9--xM-xM-9L-9----|--xM-xM-7L-7--xM-xM-7L-7--xM-xM-7L-7--xM-xM-7L-7----|
----------------------------------------------------|----------------------------------------------------|----------------------------------------------------|----------------------------------------------------|--x--xM-4L-4--x--xM-4L-4--x--xM-4L-4--x--xM-4L-4----|--xM-xM-2L-2--xM-xM-2L-2--xM-xM-2L-2--xM-xM-2L-2----|
----------------------------------------------------|----------------------------------------------------|----------------------------------------------------|----------------------------------------------------|--xM-xM-9L-9--xM-xM-9L-9--xM-xM-9L-9--xM-xM-9L-9----|--xM-xM-7L-7--xM-xM-7L-7--xM-xM-7L-7--xM-xM-7L-7----|
----------------------------------------------------|----------------------------------------------------|----------------------------------------------------|----------------------------------------------------|--x--xM-4L-4--x--xM-4L-4--x--xM-4L-4--x--xM-4L-4----|--xM-xM-2L-2--xM-xM-2L-2--xM-xM-2L-2--xM-xM-2L-2----|
----------------------------------------------------|----------------------------------------------------|----------------------------------------------------|----------------------------------------------------|--xM-xM-9L-9--xM-xM-9L-9--xM-xM-9L-9--xM-xM-9L-9----|--xM-xM-7L-7--xM-xM-7L-7--xM-xM-7L-7--xM-xM-7L-7----|
----------------------------------------------------|----------------------------------------------------|----------------------------------------------------|----------------------------------------------------|--x--xM-4L-4--x--xM-4L-4--x--xM-4L-4--x--xM-4L-4----|--xM-xM-2L-2--xM-xM-2L-2--xM-xM-2L-2--xM-xM-2L-2----|
----------------------------------------------------|----------------------------------------------------|----------------------------------------------------|----------------------------------------------------|--xM-xM-9L-9--xM-xM-9L-9--xM-xM-9L-9--xM-xM-9L-9----|--xM-xM-7L-7--xM-xM-7L-7--xM-xM-7L-7--xM-xM-7L-7----|
----------------------------------------------------|----------------------------------------------------|----------------------------------------------------|----------------------------------------------------|--x--xM-4L-4--x--xM-4L-4--x--xM-4L-4--x--xM-4L-4----|--xM-xM-2L-2--xM-xM-2L-2--xM-xM-2L-2--xM-xM-2L-2----|
----------------------------------------------------|----------------------------------------------------|----------------------------------------------------|--9--9--9--9--9--9--9--9--9--9--9--9--9--9--9--9----|--7--7--7--7--7--7--7--7--7--7--7--7--7--7--7--7----|----------------------------------------------------|
----------------------------------------------------|----------------------------------------------------|----------------------------------------------------|----------------------------------------------------|--4--4--4--4--4--4--4--4--4--4--4--4--4--4--4--4----|--2--2--2--2--2--2--2--2--2--2--2--2--2--2--2--2----|
----------------------------------------------------|----------------------------------------------------|----------------------------------------------------|--9--9--9--9--9--9--9--9--9--9--9--9--9--9--9--9----|--7--7--7--7--7--7--7--7--7--7--7--7--7--7--7--7----|----------------------------------------------------|
----------------------------------------------------|----------------------------------------------------|----------------------------------------------------|----------------------------------------------------|--4--4--4--4--4--4--4--4--4--4--4--4--4--4--4--4----|--2--2--2--2--2--2--2--2--2--2--2--2--2--2--2--2----|
----------------------------------------------------|----------------------------------------------------|----------------------------------------------------|----------------------------------------------------|--xM-xM-9L-9--xM-xM-9L-9--xM-xM-9L-9--xM-xM-9L-9----|--xM-xM-7L-7--xM-xM-7L-7--xM-xM-7L-7--xM-xM-7L-7----|
----------------------------------------------------|----------------------------------------------------|----------------------------------------------------|----------------------------------------------------|--x--xM-4L-4--x--xM-4L-4--x--xM-4L-4--x--xM-4L-4----|--xM-xM-2L-2--xM-xM-2L-2--xM-xM-2L-2--xM-xM-2L-2----|
----------------------------------------------------|----------------------------------------------------|----------------------------------------------------|----------------------------------------------------|--xM-xM-9L-9--xM-xM-9L-9--xM-xM-9L-9--xM-xM-9L-9----|--xM-xM-7L-7--xM-xM-7L-7--xM-xM-7L-7--xM-xM-7L-7----|
----------------------------------------------------|----------------------------------------------------|----------------------------------------------------|----------------------------------------------------|--x--xM-4L-4--x--xM-4L-4--x--xM-4L-4--x--xM-4L-4----|--xM-xM-2L-2--xM-xM-2L-2--xM-xM-2L-2--xM-xM-2L-2----|
----------------------------------------------------|----------------------------------------------------|----------------------------------------------------|----------------------------------------------------|--xM-xM-9L-9--xM-xM-9L-9--xM-xM-9L-9--xM-xM-9L-9----|--xM-xM-7L-7--xM-xM-7L-7--xM-xM-7L-7--xM-xM-7L-7----|
----------------------------------------------------|----------------------------------------------------|----------------------------------------------------|----------------------------------------------------|--x--xM-4L-4--x--xM-4L-4--x--xM-4L-4--x--xM-4L-4----|--xM-xM-2L-2--xM-xM-2L-2--xM-xM-2L-2--xM-xM-2L-2----|
----------------------------------------------------|----------------------------------------------------|----------------------------------------------------|----------------------------------------------------|--xM-xM-9L-9--xM-xM-9L-9--xM-xM-9L-9--xM-xM-9L-9----|--xM-xM-7L-7--xM-xM-7L-7--xM-xM-7L-7--xM-xM-7L-7----|
----------------------------------------------------|----------------------------------------------------|----------------------------------------------------|----------------------------------------------------|--x--xM-4L-4--x--xM-4L-4--x--xM-4L-4--x--xM-4L-4----|--xM-xM-2L-2--xM-xM-2L-2--xM-xM-2L-2--xM-xM-2L-2----|
----------------------------------------------------|----------------------------------------------------|----------------------------------------------------|--9--9--9--9--9--9--9--9--9--9--9--9--9--9--9--9----|--7--7--7--7--7--7--7--7--7--7--7--7--7--7--7--7----|----------------------------------------------------|
----------------------------------------------------|----------------------------------------------------|----------------------------------------------------|----------------------------------------------------|--4--4--4--4--4--4--4--4--4--4--4--4--4--4--4--4----|--2--2--2--2--2--2--2--2--2--2--2--2--2--2--2--2----|
----------------------------------------------------|----------------------------------------------------|----------------------------------------------------|--9--9--9--9--9--9--9--9--9--9--9--9--9--9--9--9----|--7--7--7--7--7--7--7--7--7--7--7--7--7--7--7--7----|----------------------------------------------------|
----------------------------------------------------|----------------------------------------------------|----------------------------------------------------|----------------------------------------------------|--4--4--4--4--4--4--4--4--4--4--4--4--4--4--4--4----|--2--2--2--2--2--2--2--2--2--2--2--2--2--2--2--2----|
----------------------------------------------------|----------------------------------------------------|----------------------------------------------------|--------------------------9--9--9--9--9--9--9--9----|--9--9--9--9--9--9--9--9--7--7--7--7--7--7--7--7----|--7--7--7--7--7--7--7--7----------------------------|
----------------------------------------------------|----------------------------------------------------|----------------------------------------------------|----------------------------------------------------|--4--4--4--4--4--4--4--4--4--4--4--4--4--4--4--4----|--2--2--2--2--2--2--2--2--2--2--2--2--2--2--2--2----|
----------------------------------------------------|----------------------------------------------------|----------------------------------------------------|--------------------------9--9--9--9--9--9--9--9----|--9--9--9--9--9--9--9--9--7--7--7--7--7--7--7--7----|--7--7--7--7--7--7--7--7----------------------------|
----------------------------------------------------|----------------------------------------------------|----------------------------------------------------|----------------------------------------------------|--4--4--4--4--4--4--4--4--4--4--4--4--4--4--4--4----|--2--2--2--2--2--2--2--2--2--2--2--2--2--2--2--2----|
----------------------------------------------------|----------------------------------------------------|----------------------------------------------------|--------------------------9--9--9--9--9--9--9--9----|--9--9--9--9--9--9--9--9--7--7--7--7--7--7--7--7----|--7--7--7--7--7--7--7--7----------------------------|
----------------------------------------------------|----------------------------------------------------|----------------------------------------------------|----------------------------------------------------|--4--4--4--4--4--4--4--4--4--4--4--4--4--4--4--4----|--2--2--2--2--2--2--2--2--2--2--2--2--2--2--2--2----|
----------------------------------------------------|----------------------------------------------------|----------------------------------------------------|--------------------------9--9--9--9--9--9--9--9----|--9--9--9--9--9--9--9--9--7--7--7--7--7--7--7--7----|--7--7--7--7--7--7--7--7----------------------------|
----------------------------------------------------|----------------|-------|----------------------------------------------------|----------------|-------|----------------------------------------------------|----------------|-------|----------------------------------------------------|--9--9--9--9----|--11---|--4--4--4--4--4--4--4--4--4--4--4--4--4--4--4--4----|--7--6--7--6----|--9----|--2--2--2--2--2--2--2--2--2--2--2--2--2--2--2--2----|----------------|-------|
----------------|----------------------------------------------------|----------------|----------------------------------------------------|----------------|----------------------------------------------------|--9--9--9--9----|----------------------------------------------------|--7--6--7--6----|--4-----------------------4M-4M-4M-4M-4M-4M-4M-4M---|----------------|--2-----------------------2M-2M-2M-2M-2M-2M-2M-2M---|
----------------------------------------------------|----------------------------------------------------|----------------------------------------------------|----------------------------------------------------|-----------------------6--7-----------7--7--11------|-----7-----------7--9-------------------------------|
----------------------------|----------------------------|----------------------------|----------------------------|--9-----------9--9--7--7----|----------------------------|
----------------------------------------------------|----------------|----------------------------------------------------|----------------|----------------------------------------------------|-----------11---|----------------------------------------------------|--------11------|--6--6--6--6--6--6--6--6--7-----7-----7--7--11------|--9~------------|----------------------------------------------------|----------------|
----------------------------------------------------|----------------------------------------------------|----------------------------------------------------|----------------------------------------------------|--11----------11----11-11-14-14-14----14----14------|----------------------------------------------------|
----------------------------------------------------|----------------------------------------------------|----------------------------------------------------|--------------------------------------------11-13---|--13L---------------------13L13L13L13-13-14---------|----------------------------------------------------|
--7-----7-----7-----7-----7-----7-----7-----7-------|-----7-----7-----7-----7-----7-----7-----7-----7----|----------------------------------------------------|----------------------------------------------------|----------------------------------------------------|----------------------------------------------------|
--9-----9-----9-----9-----12-12-12-12-14L14L14L14---|-----7-----7-----7-----7----------------------------|----------------------------------------------------|----------------------------------------------------|----------------------------------------------------|----------------------------------------------------|
----------------------------------------------------|----------------------------------------------------|----------------------------------------------------|----------------------------------------------------|--xM-xM-9L-9--xM-xM-9L-9--xM-xM-9L-9--xM-xM-9L-9----|--xM-xM-7L-7--xM-xM-7L-7--xM-xM-7L-7--xM-xM-7L-7----|
----------------------------------------------------|----------------------------------------------------|----------------------------------------------------|----------------------------------------------------|--x--xM-4L-4--x--xM-4L-4--x--xM-4L-4--x--xM-4L-4----|--xM-xM-2L-2--xM-xM-2L-2--xM-xM-2L-2--xM-xM-2L-2----|
----------------------------------------------------|----------------------------------------------------|----------------------------------------------------|----------------------------------------------------|--xM-xM-9L-9--xM-xM-9L-9--xM-xM-9L-9--xM-xM-9L-9----|--xM-xM-7L-7--xM-xM-7L-7--xM-xM-7L-7--xM-xM-7L-7----|
----------------------------------------------------|----------------------------------------------------|----------------------------------------------------|----------------------------------------------------|--x--xM-4L-4--x--xM-4L-4--x--xM-4L-4--x--xM-4L-4----|--xM-xM-2L-2--xM-xM-2L-2--xM-xM-2L-2--xM-xM-2L-2----|
----------------------------------------------------|----------------------------------------------------|----------------------------------------------------|----------------------------------------------------|--xM-xM-9L-9--xM-xM-9L-9--xM-xM-9L-9--xM-xM-9L-9----|--xM-xM-7L-7--xM-xM-7L-7--xM-xM-7L-7--xM-xM-7L-7----|
----------------------------------------------------|----------------------------------------------------|----------------------------------------------------|----------------------------------------------------|--x--xM-4L-4--x--xM-4L-4--x--xM-4L-4--x--xM-4L-4----|--xM-xM-2L-2--xM-xM-2L-2--xM-xM-2L-2--xM-xM-2L-2----|
----------------------------------------------------|----------------------------------------------------|----------------------------------------------------|----------------------------------------------------|--xM-xM-9L-9--xM-xM-9L-9--xM-xM-9L-9--xM-xM-9L-9----|--xM-xM-7L-7--xM-xM-7L-7--xM-xM-7L-7--xM-xM-7L-7----|
----------------------------------------------------|----------------------------------------------------|----------------------------------------------------|----------------------------------------------------|--x--xM-4L-4--x--xM-4L-4--x--xM-4L-4--x--xM-4L-4----|--xM-xM-2L-2--xM-xM-2L-2--xM-xM-2L-2--xM-xM-2L-2----|
----------------------------------------------------|----------------------------------------------------|----------------------------------------------------|--9--9--9--9--9--9--9--9--9--9--9--9--9--9--9--9----|--7--7--7--7--7--7--7--7--7--7--7--7--7--7--7--7----|----------------------------------------------------|
----------------------------------------------------|----------------------------------------------------|----------------------------------------------------|----------------------------------------------------|--4--4--4--4--4--4--4--4--4--4--4--4--4--4--4--4----|--2--2--2--2--2--2--2--2--2--2--2--2--2--2--2--2----|
----------------------------------------------------|----------------------------------------------------|----------------------------------------------------|--9--9--9--9--9--9--9--9--9--9--9--9--9--9--9--9----|--7--7--7--7--7--7--7--7--7--7--7--7--7--7--7--7----|----------------------------------------------------|
----------------------------------------------------|----------------------------------------------------|----------------------------------------------------|----------------------------------------------------|--4--4--4--4--4--4--4--4--4--4--4--4--4--4--4--4----|--2--2--2--2--2--2--2--2--2--2--2--2--2--2--2--2----|
----------------------------------------------------|----------------------------------------------------|----------------------------------------------------|--------------------------9--9--9--9--9--9--9--9----|--9--9--9--9--9--9--9--9--7--7--7--7--7--7--7--7----|--7--7--7--7--7--7--7--7----------------------------|
----------------------------------------------------|----------------------------------------------------|----------------------------------------------------|----------------------------------------------------|--4--4--4--4--4--4--4--4--4--4--4--4--4--4--4--4----|--2--2--2--2--2--2--2--2--2--2--2--2--2--2--2--2----|
----------------------------------------------------|----------------------------------------------------|----------------------------------------------------|--------------------------9--9--9--9--9--9--9--9----|--9--9--9--9--9--9--9--9--7--7--7--7--7--7--7--7----|--7--7--7--7--7--7--7--7----------------------------|
----------------------------------------------------|----------------------------------------------------|----------------------------------------------------|----------------------------------------------------|--4--4--4--4--4--4--4--4--4--4--4--4--4--4--4--4----|--2--2--2--2--2--2--2--2--2--2--2--2--2--2--2--2----|
----------------------------------------------------|----------------------------------------------------|----------------------------------------------------|--------------------------9--9--9--9--9--9--9--9----|--9--9--9--9--9--9--9--9--7--7--7--7--7--7--7--7----|--7--7--7--7--7--7--7--7----------------------------|
----------------------------------------------------|----------------------------------------------------|----------------------------------------------------|----------------------------------------------------|--4--4--4--4--4--4--4--4--4--4--4--4--4--4--4--4----|--2--2--2--2--2--2--2--2--2--2--2--2--2--2--2--2----|
----------------------------------------------------|----------------------------------------------------|----------------------------------------------------|--------------------------9--9--9--9--9--9--9--9----|--9--9--9--9--9--9--9--9--7--7--7--7--7--7--7--7----|--7--7--7--7--7--7--7--7----------------------------|
----------------------------------------------------|----------------|-------|----------------------------------------------------|----------------|-------|----------------------------------------------------|----------------|-------|----------------------------------------------------|--9--9--9--9----|--11---|--4--4--4--4--4--4--4--4--4--4--4--4--4--4--4--4----|--7--6--7--6----|--9----|--2--2--2--2--2--2--2--2--2--2--2--2--2--2--2--2----|----------------|-------|
----------------|-------|----------------|-------|----------------|----------------|-------|----------------|-------|----------------|----------------|-------|----------------|-------|----------------|--9--9--9--9----|--11---|--9--9--9--9----|--11---|--9--9--9--9----|--7--6--7--6----|--9----|--7--6--7--6----|--9----|--7--6--7--6----|----------------|-------|----------------|-------|----------------|
----------------------------------------------------|-------|-------|-------||----------------------------------------------------|-------|-------|-------||----------------------------------------------------|-------|-------|-------||----------------------------------------------------|-------|-------|-------||--4-----------------------4M-4M-4M-4M-4M-4M-4M-4M---|--9L---|--9L---|--9----||--2-----------------------2M-2M-2M-2M-2M-2M-2M-2M---|--7L---|--7L---|--7----||
Please rate this tab:
x1.0