Bowling For Soup – Somebody Get My Mom tab

                     somebody get my mom tabs 
  
its a realy cool song
    artist bowling for soup
   album A Hangover You Don't Deserve
  any suggestions email lucamagicp@hotmail.com

 
-------------------------------------------- -------------------------------------------- -------------------------------------------- ----------------555555555-7777777777------------ -55555555555555-333333333-5555555555-55555555-5--- -33333333333333----------------------33333333-3---PM.............. ......... .......... ........
-------------------------------------------- -------------------------------------------- -------------------------------------------- ----------------555555555-7777777777------------ -55555555555555-333333333-5555555555-55555555-5--- -33333333333333----------------------33333333-3---
------------------------------------------------ ------------------------------------------------ ------------------------------------------------ -5-5-5-5-5-5-----------------5-5-5-5-5-5-5-7-7-7-7-7-7-- -3-3-3-3-3-3-5-5-5-5-5-5-5-5-3-3-3-3-3-3-3-5-5-5-5-5-5---- -------------3-3-3-3-3-3-3-3-------------------------------
CHORUS:
------------------------------------------------ ------------------------------------------------ -------------5-5-5-2-2-2-----------5-5-5-2-2-2--------- -5-5-5-5-5-5-5-5-5-2-2-2-5-5-5-5-5-5-5-5-2-2-2------------ -5-5-5-5-5-5-3-3-3-0-0-0-5-5-5-5-5-3-3-3-0-0-0------------ -3-3-3-3-3-3-------------3-3-3-3-3-----------------
------------------------------------------------------ ------------------------------------------------------ -------2-2-2-5-5-5-7-7-7-5-5-5-5-5-5-7-7--------------- -5-5-5-2-2-2-5-5-5-7-7-7-5-5-5-5-5-5-7-7-------------------- -5-5-5-0-0-0-3-3-3-5-5-5-3-3-3-3-3-3-5-5----------------- -3-3-3---------------------------------------------------
VERSE2 (GUITAR1)
--------------------------------------------------------- --------------------------------------------------------- --------------------------------------------------- -------------5555555555-7777777777------------------------ -55555555555-3333333333-5555555555-555555555555---------------- -33333333333-----------------------333333333333--------------
VERSE2 (GUITAR2)
--3-3--3-3---3-3--3-3----5-5--5-5----3--3-3/53------------- -----------------------------------33-33--------3/53-------- ----------------------------------------------------------- ------------------------------------------------------------ ----------------------------------------------------------- ------------------------------------------------------------
BRIDGE:
------------------------------------------------------------ ------------------------------------------------------------ ------------------------------------------------------------- -----------------5555555555555----------------------------- -555555555555555-3333333333333-55555555555555----------------- -333333333333333---------------33333333333333-------------------
------------------------------------------------------------ ------------------------------------------------------------ ------------------------------------------------------------- --7-7-7-7-7-7-7-7-7-7-7-5-5-5-5-5-5-5-5-5-5-5-------------- --5-5-5-5-5-5-5-5-5-5-5-3-3-3-3-3-3-3-3-3-3-3---------------- ------------------------------------------------------------- PM. . . . . . . . . . . . . .
GUITAR1
-3333333333333/55-X4------------------------------------------ ------------------------------------------------------------ ------------------------------------------------------------- ------------------------------------------------------------- ------------------------------------------------------------ -------------------------------------------------------------
GUITAR 2
------------------------------------------------------------ ------------------------------------------------------------- ---------------5-5--------------------------------------------- -5555555555555-5-5-X4------------------------------------------ -5555555555555-3-3--------------------------------------------- -3333333333333--------------------------------------------------
then play the choruus again.
Please rate this tab:
x1.0