Box Policy - Listerine tab

> Let ring
\ Slide
* Play multiple times
x Muted
. Palm muted


Intro:

(Bryan)e-----------------------------------------------~b-----------------------------------------------~G------------8-8-8-xx---------------------------~D--6-6-6-xx--8-8-8-xx--10-10-10-xx--11-11-11-xx-~A--6-6-6-xx--6-6-6-xx--10-10-10-xx--11-11-11-xx-~E--4-4-4-xx------------8--8--8--xx--9--9--9--xx-~
-------------------------------------------|-------------------------------------------|-----------8-8-8-xx------------------------|-6-6-6-xx--8-8-8-xx--10-x-10-10-10-11>-11\-|-6-6-6-xx--6-6-6-xx--10-x-10-10-10-11>-11\-|-4-4-4-xx------------8--x-8--8--8--9>--9\--|
(Dan) Overlapping the second time intro is playede--------------------------------------------|b--------------------------------------------|G------------8-8-----------------------------|D--6-6-------8-8-------10-x-10-10-10-11>-11\-|A--6-6-------6-6-------10-x-10-10-10-11>-11\-|E--4-4-----------------8--x-8--8--8--9>--9\--|
Verse 1 (Both) Slide in from introe------------------------------------~b------------------------------------~G-------------------8888888888888888-~D--6666666666666666-8888888888888888-~A--6666666666666666-6666666666666666-~E--4444444444444444------------------~
---------------------------------------------------------|---------------------------------------------------------|10101010101010101010101010101010-------------------------|10101010101010101010101010101010-1111111111111111111111--|8-8-8-8-8-8-8-8-8-8-8-8-8-8-8-8--1111111111111111111111--|---------------------------------9-9-9-9-9-9-9-9-9-9-9---|
. . . .e------------------------------------~b------------------------------------~G-------------------8888888888888888-~D--6666666666666666-8888888888888888-~A--6666666666666666-6666666666666666-~E--4444444444444444------------------~
---------------------------------------------------------|---------------------------------------------------------|1010101010101010101010-----------------------------------|1010101010101010101010-11111111111111111111111111111111--| (x2)8-x-x-8-x-x-8-x-8-8-8--11111111111111111111111111111111--|-----------------------9-9-9-9-9-9-9-9-9-9-9-9-9-9-9-9---|
Chorus (Both)e------------------------------------~b------------------------------------~G-------------------8888888888888888-~D--6666666666666666-8888888888888888-~A--6666666666666666-6666666666666666-~E--4444444444444444------------------~
---------------------------------------------------------|---------------------------------------------------------|---------------------------------------------------------|10101010101010101010101010101010-1111111111111111111111--| (x2)10101010101010101010101010101010-1111111111111111111111--|8-8-8-8-8-8-8-8-8-8-8-8-8-8-8-8--9-9-9-9-9-9-9-9-9-9-9---|
Bridge (Both)e-----------------------------------------------~b-----------------------------------------------~G------------8-8-8-xx---------------------------~D--6-6-6-xx--8-8-8-xx--10-10-10-xx--11-11-11-xx-~A--6-6-6-xx--6-6-6-xx--10-10-10-xx--11-11-11-xx-~E--4-4-4-xx------------8--8--8--xx--9--9--9--xx-~
-------------------------------------------|-------------------------------------------|-----------8-8-8-xx------------------------|-6-6-6-xx--8-8-8-xx--10-x-10-10-10-11>-11\-|-6-6-6-xx--6-6-6-xx--10-x-10-10-10-11>-11\-|-4-4-4-xx------------8--x-8--8--8--9>--9\--|
Verse 2:
(Bryan)e------------------------------------~b------------------------------------~G-------------------8888888888888888-~D--6666666666666666-8888888888888888-~A--6666666666666666-6666666666666666-~E--4444444444444444------------------~
---------------------------------------------------------|---------------------------------------------------------|10101010101010101010101010101010-------------------------|10101010101010101010101010101010-1111111111111111111111--|8-8-8-8-8-8-8-8-8-8-8-8-8-8-8-8--1111111111111111111111--|---------------------------------9-9-9-9-9-9-9-9-9-9-9---|
. . . .e------------------------------------~b------------------------------------~G-------------------8888888888888888-~D--6666666666666666-8888888888888888-~A--6666666666666666-6666666666666666-~E--4444444444444444------------------~
---------------------------------------------------------|---------------------------------------------------------|1010101010101010101010-----------------------------------|1010101010101010101010-11111111111111111111111111111111--| (x2)8-x-x-8-x-x-8-x-8-8-8--11111111111111111111111111111111--|-----------------------9-9-9-9-9-9-9-9-9-9-9-9-9-9-9-9---|
(Dan) Overlapping The 2nd versee-------------------------------------------------~b----9-8-----9-8------9-8-----8-9-10--9-8-----9-8-~G--------6-8*----8-10*----8-6*-------------6-8*---~D--6*--------------------------------6*-----------~A-------------------------------------------------~E-------------------------------------------------~
e----------------------------------------------------------------|b-----9-8-----8-9-11-9>-8-11>-11-8>-8-9>-8-9>-8-11>-11-13>-14\9>>|G-8-10*----8-6*--------------------------------------------------|D----------------------------------------------------------------|A----------------------------------------------------------------|E----------------------------------------------------------------|
Chorus (Both)e------------------------------------~b------------------------------------~G-------------------8888888888888888-~D--6666666666666666-8888888888888888-~A--6666666666666666-6666666666666666-~E--4444444444444444------------------~
---------------------------------------------------------|---------------------------------------------------------|---------------------------------------------------------|10101010101010101010101010101010-1111111111111111111111--| (x2)10101010101010101010101010101010-1111111111111111111111--|8-8-8-8-8-8-8-8-8-8-8-8-8-8-8-8--9-9-9-9-9-9-9-9-9-9-9---|
Bridge (Both)e-----------------------------------------------~b-----------------------------------------------~G------------8-8-8-xx---------------------------~D--6-6-6-xx--8-8-8-xx--10-10-10-xx--11-11-11-xx-~A--6-6-6-xx--6-6-6-xx--10-10-10-xx--11-11-11-xx-~E--4-4-4-xx------------8--8--8--xx--9--9--9--xx-~
-------------------------------------------|-------------------------------------------|-----------8-8-8-xx------------------------|-6-6-6-xx--8-8-8-xx--10-x-10-10-10-11>-11\-|-6-6-6-xx--6-6-6-xx--10-x-10-10-10-11>-11\-|-4-4-4-xx------------8--x-8--8--8--9>--9\--|
Breakdown:
(Dan) Slide in from bridge and let ringe-----------------|b-----------------|G-----8>-10>------|D--6>-8>-10>-11>--| (x2)A--6>-6>-8>--11>--|E--4>--------9>---|
(Bryan) Coming in the second time Dan playse--------------------------------------~b--------------------------------------~G---------88-888-1010-101010-6>666666--~D--66-666-88-888-1010-101010-6>666666--~A--66-666-66-666-8-8--8-8-8--4>444444--~E--44-444------------------------------~
......................... ......e-----------------------------------------------|b-----------------------------------------------|G-----------88888888-1010101010101010-66666666--|D--66666666-88888888-1010101010101010-66666666--| (x4)A--66666666-66666666-8-8-8-8-8-8-8-8--44444444--|E--44444444-------------------------------------|
...........................................e-----------------------------~b-----------------------------~G---------8888xxx-10101010xxx-~D-6666xxx-8888xxx-10101010xxx-~A-6666xxx-6666xxx-8-8-8-8-xxx-~E-4444xxx---------------------~
e-------------------------------------------------|b-------------------------------------------------|G--6666xxx----------88888888-1010101010101010-----|D--6666xxx-66666666-88888888-1010101010101010-11>-|A--4444xxx-66666666-66666666-8-8-8-8-8-8-8-8--11>-|E----------44444444---------------------------9>--|
(Dan) Coming in the third time Bryan playse-----------------------------------------------|b-----------------------------------------------|G---------555-66-888-101010-1212-13-12-1212-10--|D--12\666---------------------------------------| (x4)A-----------------------------------------------|E-----------------------------------------------|
Outro:
(Bryan)e-----------------------------------------------~b-----------------------------------------------~G------------8-8-8-xx---------------------------~D--6-6-6-xx--8-8-8-xx--10-10-10-xx--11-11-11-xx-~A--6-6-6-xx--6-6-6-xx--10-10-10-xx--11-11-11-xx-~E--4-4-4-xx------------8--8--8--xx--9--9--9--xx-~
-------------------------------------------|-------------------------------------------|-----------8-8-8-xx------------------------|-6-6-6-xx--8-8-8-xx--10-x-10-10-10-11>-11\-|-6-6-6-xx--6-6-6-xx--10-x-10-10-10-11>-11\-|-4-4-4-xx------------8--x-8--8--8--9>--9\--|
(Dan) Overlapping the second time outro is playede----------------------------------------|b----------------------------------------|G------------8-8-------------------------|D--6-6-------8-8-------10-x-10-10-10-11>-|A--6-6-------6-6-------10-x-10-10-10-11>-|E--4-4-----------------8--x-8--8--8--9>--|
(Bryan) Slide in play verse with different endinge---------------------------------------------|b---------------------------------------------|G---------------------------------------------|D-~111111111111111111111111-8-10-11-8-6>--6---|A-~111111111111111111111111-8-10-11-8-6>---6--|E-~9-9-9-9-9-9-9-9-9-9-9-9--6-8--9--6-4>----4-|
(Dan)e--11-8-9-8-11-8-9-8-11-8-9-8-11-8-9-8----8-9-8----8-9-8----8-9-11-9-8-~b--------------------------------------11-------11-------11------------~G----------------------------------------------------------------------~D----------------------------------------------------------------------~A----------------------------------------------------------------------~E----------------------------------------------------------------------~
e---8-11-8-9-8-11-8-9-8-11-8-9-8-11-8-9-8-~b-11--------------------------------------~G-----------------------------------------~D-----------------------------------------~A-----------------------------------------~E-----------------------------------------~
e----8-9-8----8-9-8----8-9-11-9-8----8----|b-11-------11-------11------------11---9>-|G-----------------------------------------|D-----------------------------------------|A-----------------------------------------|E-----------------------------------------|
Tap to rate this tab
 
# A B C D E F G H I J K L M N O P Q R S T U V W X Y Z