Boyce Avenue - Briane tab version 1

"Briane" By Boyce Avenue

Tabbed By Brandon Cabrera

YouTube Channel:
http://www.youtube.com/user/BrandonCabrera19

Video of me singing/playing it:
http://www.youtube.com/watch?v=ed6_rF-VxWM

Tuning: D# G# C# F# B F#

 ^ = hammer on/off
 x = mute
 / = slide up/down

Acoustic Guitar 1 (Rhythm Guitar)Intro:----------------------------------------------------|-------0-------0-------0-------0-------0-------0----|-----0---0---0---0---0---0---0---0-------0---0---0--|-------------------------------------2--------------|---3-------3-------3-------3-------0-------0--------|----------------------------------------------------|
----------------------------------------------------|-------0-------0-------0-------0-------0-------0----|-----0---0---0---0---0---0---0---0---0---0---0---0--|----------------------------------------------------|---2-------2-------3-------3-------3-------3--------|----------------------------------------------------|
-----------------------------------0--0--0---0--0--0--0-0--|------0-------0-------0-------0----0--0--0---0--0--0--0-0--|--------0---0---0---0---0---0---0--2--0--0---2--0--0--0-0--|----2------------------------------2--0--3---2--0--3--2-x--|--0-------0-------2-------2--------0--x--3---0--x--3--3-2--|--------------------------------------3--1------3--1-------|
Verse 1:--0--0--0---0--0--0--0--0----------0---------0---------0----|--0--0--0---0--0--0--0--2------0---------0---------0--------|--2--0--0---2--0--0--0--0--------2---------0---------0------|--2--0--3---2--0--3--2--0----2---------0---------3----------|--0--x--3---0--x--3--3--2--0--------------------------------|-----3---------3---------------------3---------1------------|
---------------------0---------0---------0-------0-----0--|--0--------------0---------0---------0-----0-2/4---0-2----|----0------0-------2---------0---------0------------------|-------2^3-----2---------0---------3----------------------|-------------0--------------------------------------------|-----------------------3---------1------------------------|
Chorus: Play 4x----------------------------------------------------|-------0-------0-------0-------0-------0-------0----|-----0---0---0---0---0---0---0---0---0---0---0---0--|----------------------------------------------------|---3-------3-------3-------3-------0-------0--------|----------------------------------------------------|
-------------------|-------0-------0---|-----0---0---0---0-|-------------------|---2-------2-------|-------------------|
Verse 2:--0--0--0-----------0---------0---------0-------0-----0-|--0--0--0-------0---------0---------0-----0-2/4---0-2---|--2--0--0---------2---------0---------0-----------------|--2--0--3-----2---------0---------3---------------------|--0--x--3---0-------------------------------------------|-----3----------------3---------1-----------------------|
Bridge:--0--0-0-0--0-0-0--0-0-0--0-0-0---0--0--|--0--0-0-0--0-0-0--0-0-0--0-0-0---0--2--|--0--0-0-0--0-0-0--0-0-0--0-0-0---0--0--|--3--2-0-3--2-0-3--2-0-3--2-0-3---2--0--|--3--3-x-3--3-x-3--3-x-3--3-x-3---3--2--|--1----3-1----3-1----3-1----3-0---------|
Breakdown:---------------------------------------------------|------0-------0-------0-------0-------0-------0----|----0---0---0---0---0---0---0---0---0---0---0---0--|---------------------------------------------------|--3-------3-------3-------3-------0-------0--------|---------------------------------------------------|
---------------------------------------------------|------0-------0-------0-------0-------0-------0----|----0---0---0---0---0---0---0---0---0---0---0---0--|---------------------------------------------------|--2-------2-------3-------3-------3-------3--------|---------------------------------------------------|
---------------------------------------------------|------0-------0-------0-------0-------0-------0----|----0---0---0---0---0---0---0---0---0---0---0---0--|---------------------------------------------------|--0-------0-------2-------2-------3-------3--------|---------------------------------------------------|
---------------------------------------------------|------0-------0-------0-------0-------0-------0----|----0---0---0---0---0---0---0---0---0---0---0---0--|---------------------------------------------------|--3-------3-------0-------0-------2-------2--------|---------------------------------------------------|
---------------------------------------------------|------0-------0-------0-------0-------0-------0----|----0---0---0---0---0---0---0---0---0---0---0---0--|---------------------------------------------------|--3-------3-------3-------3-------0-------0--------|---------------------------------------------------|
-------------------|------0-------0----|----0---0---0---0--|-------------------|--2-------2--------|-------------------|
Tap to rate this tab
 
# A B C D E F G H I J K L M N O P Q R S T U V W X Y Z