Fix You tab with lyrics by Boyce Avenue - Easy chords and tabs for guitar

Boyce Avenue – Fix You tab

Song: Fix You
Artist: Boyce Avenue ft. Tyler Ward
Tabbed by: Henrik Engebretsen
@: henrikengebretsen@gmail.com

El-guitar only!

Link: http://www.youtube.com/watch?v=T9ETxBHYBAU
I recommend playing along with the song, as not all parts of it is played by the el-guitar.


[INTRO]|-------------|----------------|----16-15\11-|-------16-15\11-|-12----------|-10-12----------|-------------|----------------|-------------|----------------|-------------|----------------
[VERSE 1] (Only acoustic guitar)
[VERSE 2]|-------------|-------------|-------------|-------------|------7------|------7------|---8----5----|---8----5--3- x2|-6-----------|-6-----------|-------------|-------------(And the tears come streaming down your face...)
[CHORUS 1]
|-------------|-------------|-------------|-------------|--------11---|-------------|--------11---|-------------|-----8-------|-10----------|-----8-------|-10----------|-10----------|-------8-----|-10----------|-------8-----|-------------|-------------|-------------|----------10-|-------------|-------------|-------------|-------------(Lights will guide...)
|-------------|-------------|--------11---|-------------|-----8-------|-10----------|-10----------|-------------|-------------|-------------|-------------|-------------
[INTERLUDE]
|-------11----|-------10----|-------11----|-------10----|----8--------|----8--------|----8--------|-------------|-8-----------|-------------|-------------|----10-------|-------------|-------------|-------------|-------------|-------------|-------------|-------------|-------------|-------------|-------------|-------------|-------------
|-------11----|-------10----|-------11----|-10----------|----8--------|----8--------|----8--------|-------------|-8-----------|-------------|-------------|-------------|-------------|-------------|-------------|-------------|-------------|-------------|-------------|-------------|-------------|-------------|-------------|-------------
[VERSE 3]
|-------------|-------------|-------------|-------------|-------------|-------------|-------------|-------------|-------8-----|-------7-----|-------8-----|-------7-----|----8--------|----8--------|----8--------|----8-------- x4|-6-----------|-------------|-------------|-------------|-------------|-------------|-------------|-------------(And high up above...)
[CHOPUS 2]
|-------------|-------------|-11----------|-11----------|-8-----------|-10----------|-10----------|-8-----8-----|-------------|-------------|-------------|-------------
|-------------|-------------|-11----------|-11----11----|-8-----------|-10----7-----|-10----------|-8-----8-----|-------------|-------------|-------------|-------------
|-------------|-------------|-11----------|-11----------|-8-----------|-10----------|-10----------|-8-----------|-------------|-------------|-------------|-------------
[INTERLUDE]
|------------------------|------------------------ ||-4--4--4--4--4--4--4--4-|-4--4--4-/11-11-11-11\4- ||------------------------|------------------------ ||------------------------|------------------------ x3 ||------------------------|------------------------ ||------------------------|------------------------ |
| x3|------------------------|------------------------ ||-4--4--4--3--3--3--3--3-|-3--3--3--3------------- ||------------------------|------------------------ ||------------------------|------------------------ ||------------------------|------------------------ ||------------------------|------------------------ |
|------------------------|------------------------|-4--4--4--4--4--4--4--4-|-4--4--4-/11-11-11-11\4-|------------------------|------------------------|------------------------|------------------------|------------------------|------------------------|------------------------|------------------------
|------------------------|------------------------|-4--4--4--3--3--3--3--3-|-3----------------------|------------------------|------------------------|------------------------|------------------------|------------------------|------------------------|------------------------|------------------------
[BRIDGE]
|----------------|--------------|----------|---------- ||----11-11-11-11-|--11-11-11-11-|--9-9-9-9-|--9-9-9-9- ||-3/8--8--8--8---|-8--8--8--8---|-8-8-8-8--|-8-8-8-8-- ||----------------|--------------|----------|---------- ||----------------|--------------|----------|---------- ||----------------|--------------|----------|---------- |
(Tears stream down your face...) | x3|----------|----------|------------------|------------------ ||--8-8-8-8-|--8-8-8-8-|---11--11--11--11-|---11--11--11--11- ||-8-8-8-8--|-8-8-8-8--|-10--10--10--10---|-10--10--10--10--- ||----------|----------|------------------|------------------ ||----------|----------|------------------|------------------ ||----------|----------|------------------|------------------ |
|----------------|--------------|----------|----------|----11-11-11-11-|--11-11-11-11-|--9-9-9-9-|--9-9-9-9-|-3/8--8--8--8---|-8--8--8--8---|-8-8-8-8--|-8-8-8-8--|----------------|--------------|----------|----------|----------------|--------------|----------|----------|----------------|--------------|----------|----------
|----------|----------|------------------|--------------|--8-8-8-8-|--8-8-8-8-|---11--11--11--11-|--11-11-11-11-|-8-8-8-8--|-8-8-8-8--|-10--10--10--10---|-7--7--7--7---|----------|----------|------------------|--------------|----------|----------|------------------|--------------|----------|----------|------------------|--------------
[END-CHORUS]
|-------------|-------------|-------------|-------------|-8-----------|-12----------|-------------|-13----------|-------------|-11----------|-------------|-------------
(Lights will guide...)|-------------|-------------|-------------|-------------|-------------|-12----------|-12----------|-13----------|------13-----|-11----------|-------------|-------------
|-------------|-------------|-------------|-------------|-13-12-10----|-------------|-------------|-13----------|-------------|-------------|-------------|-------------
Again, it's easier to understand the tab if you play along with the video. Please, feel free to mail me any suggestions/corrections.
Please rate this tab:
x1.0