Boyce Avenue - It Will Rain tab version 1

Boyceavenue  It will Rain (Bruno Mars Cover)
http://www.youtube.com/watch?v=wIJyYjaYcVo

Tabbed by: Esperance
Support Boyce Avenue - Those guys really know how to make great music!

Actually I'm not very happy with this tab - it's not perfect, but a lot of people asked 
me to tab this song as quick as possible...So I tried to give you a solid base, so you 
can have fun playing the song. (Sorry for the crappy English!)

If you have any corrections/suggestions please drop me a line and feel free to rate this 
tab :)
>Florian-Le@live.de<
Tuning:
Standard (EADGBe)

Intro:---------------------------|-10-9---9------10-9--------|-9----9-9------9----9-9----|----------------------11---|-0-------------0------11---|--------9-------------9----|
Verse 1:---------------------------------|-2---5---2---5---3-------3-------|-2---6---2---6---4---2---4---1---|-2---6---2---6---4---4---4---2---|-0---4---0---4---2---4---2---2---|---------------------2-------0---|
-----------------------------------------------------------|-2-------5-------2-------5-------3-------2-------3-------0-|---2-------6-------2-------6-------4-------2-------4-----1-|-----2-------6-------2-------6-------4-------4-------4---2-|-0-------4-------0-------4-------2---------------2---------|----------------------------------------2---------------0-|
Chorus 1:------------------------------------|-10---10---9---9---9---9---10---9---|----9----9---9---9---9---9----9---9-|-0----------------------------------| 3x-----------7----------------9---7---|-------------------9----------------|
--------------|------7-----9-|----7---7---9-|------------9-|------------7-|-7------------|
Interlude 1:---------------------------|-10-9---9------10-9--------|-9----9-9------9----9-9----|----------------------11---|-0-------------0------11---|--------9-------------9----|
Verse 2:--------------------------------------------------------------|-2-------5-------2-------5-------3-------2-------3-------0-2-3|---2-------6-------2-------6-------4-------2-------4-----1----|-----2-------6-------2-------6-------4-------4-------4---2----|-0-------4-------0-------4-------2---------------2-------2----|----------------------------------------2---------------0----|
--------------------------------------------------------|-2-----2-------5----5--------2-----2-------5-----5------|---2------2------6-----6-------2------2------6------6---|-----2------2------6-----6-------2------2------6------6-|-0-------------4-------------0-------------4------------|--------------------------------------------------------|
----------------------------------------------|-3-----3-------2-----2-------3-----3--------0-|---4------4------2------2------2------2-----1-|-----4------4------4------4------4------4---2-|-2---------------------------2--------------2-|---------------2----------------------------0-|
Chorus 2:------------------------------------|-10---10---9---9---9---9---10---9---|----9----9---9---9---9---9----9---9-|-0----------------------------------| 3x-----------7----------------9---7---|-------------------9----------------|
--------------|------7-----9-|----7---7---9-|------------9-|------------7-|-7------------|
Interlude 2:-------------------------------|-10-9---9---------10-9---------|-9----9-9-----9---9----9-9--9--|-----------11------------11----|-0----------------0------11----|--------9----------------9-----|
Bridge:------------------------------------------------------|-3-----3------5-----5------3-----3------5-----5-------|---4-----4------6-----6------4-----4------6-----6-----|-----4-----4------6-----6------4-----4------6-----6---|-2------------4------------2------------4-------------|------------------------------------------------------|
-------------------------------------|-7---7---7---7---9---9---9---9---9---|---7---7---7---7---9---9---9---9-----|-------------------------------------|-5---------------7-------------------|-------------------------------------|
-----------------------------------------|-10---9---9---10-9---10---9---9---10-9---|-9----9---9---9--9---9----9---9---9--9---|-0-------------------0-------------------|------7-------9--7--------7-------9--7---|----------9-------------------9----------|
------------------------------------|-10---10---9---9---9---9---10---9---|----9----9---9---9---9---9----9---9-|-0----------------------------------|-----------7----------------9---7---|-------------------9----------------|
----------------|------7-------9-|----7---7-----9-|--------------9-|--------------7-|-7--------------|
Outro:--------------------------------------|-10-9---9---------10-9----------------|-9----9-9-----9---9----9-9--9---------|-----------11------------11---11------|-0----------------0------11------0~---|--------9----------------9------------|
Tap to rate this tab
 
# A B C D E F G H I J K L M N O P Q R S T U V W X Y Z