Brad Paisley - Then tab

legend:
b bend
v vibrato
/ slide
h hammer on
p pulloff
x palm mute
||
||O
||
||
||O    repeat
||
tuning is standard

Intro:

|-----------------||-8-5-------------||------7-5-7b--7b-||-----------------||-----------------||-----------------|
verse 1, just strum down on these chords once
Am F C G 2xs|---------1---------0--------3------|||-1-------1---------1--------0-----o|||-2-------2---------0--------0------|||-2-------3---------2--------0-----o|||---------3---------3--------2------|||---------1---------0--------3------||
|-o-------------------------1--||-1-------------------------1--||-2-------------------------2--||-2-------------------------3--||-o-------------------------3--||---------------------------1--|
chorus: 2xs||--------3------------3------------5-------------1-------||||o---------3------------3------------5-------------1----o||||------4------------4------------6-------------2---------||||----5------------5------------7-------------3-----------||||o------------------------------------------------------o||||--------------------------------------------------------||
repeat intro and then either play the chords shown in verse 1 or these riffs show below:
|-----------||--5--------||----7b--5--||-----------||-----------||-----------|
|--------------------------------------------||--13--13--13/12--12--12--12/10--10--10------||----------------------------------------12--||--------------------------------------------||--------------------------------------------||--------------------------------------------|
|----------||----------||----0-----||------0---||----------||--3-------|
|---------------||--1/3--3/1--1--||--2/4--4/2--2--||--2/4--4/2--2--||---------------||---------------|
after that play the chorus again then the play the solo below
|----------------------------------||-----------5---5------------------||--7b---------7---7b--5h7p5---5h7--||---------------------------7------||----------------------------------||----------------------------------|
|---------------------------------------------------------||--8b--8--8p6/5-------------------------------------------||---------------7--5----------------------------7-5-4b----||--------------------7--5---------------------------------||-------------------------7--5/3-3--3--5/7----------------||---------------------------------------------------------|
|------------------------------------------------------------------------||----------------7h9/11---9----10----11---12----13--14----15----15---17b-||----------5h7/9------------11----12---13----14---15---16----17----------||------5h7---------------------------------------------------------------||--5/7-------------------------------------------------------------------||------------------------------------------------------------------------|
after solo play chords below
G F C 2xs||---3----------------------1------------0---||||o--0----------------------1------------1--o||||---0----------------------2------------0---||||---0----------------------3------------2---||||o--2----------------------3------------3--o||||---3----------------------1------------0---||
Am F C G|--0---------1----------0----------3--||--1---------1----------1----------0--||--2---------2----------0----------0--||--2---------3----------2----------0--||--0---------3----------3----------2--||------------1----------0----------3--|
C G Am F|--0-------3--------0---------1--||--1-------0--------1---------1--||--0-------0--------2---------2--||--2-------0--------2---------3--||--3-------2--------0---------3--||--0-------3------------------1--|
after u finish this play the chorus line one time then play these ending riffs
|--------------------------||--5--8--5h8p5-------------||--------------7--5--7b----||--------------------------||--------------------------||--------------------------|
|-------------------5---------------------------------||------------------5--8--5h8p5------------------------||-0--0--0-------7b-------------7-5--7b--5h7p5----5h7--||-0--0--0-------------------------------------7-------||-----------------------------------------------------||-----------------------------------------------------|
|----------13--------------|||--15b--------15b---15vvv--|||--------------------------|||--------------------------|||--------------------------|||--------------------------||
songs fades to an end
Tap to rate this tab
 
# A B C D E F G H I J K L M N O P Q R S T U V W X Y Z