Braddigan – Keaggy Jam tab

-------------------------------------------------------------------------------
			     Keaggy Jam - Braddigan
-------------------------------------------------------------------------------
Tabbed by: Andri
Email: globe194@hotmail.com

Tuning: Standard(EADGBE)

There was no tab for this song on the Internet, so i made one.
About 85% are correct, the chords should be the right ones. But you have to figure out
the timing and the strumming for yourself, it's difficult to put that into a tab.
I made it with Guitar Pro, so the format is a little bit strange ;)
Peace =)

http://www.youtube.com/watch?v=WWCa5Ci62A4

This is only the first guitar:

PART 1:

E |-----------------|----------------|----------------|------------------|B|---1--0--1--1----|----------------|--1--0--1--1----|-------------------|G |--2--2--2--2----|--0--0--0--0----|--2--2--2--2----|--0--0--0--0-------|D |--2--0--2--2----|--2--2--2--2----|--2--0--2--2----|--2--2--2--2-------|A |--0--0--0--0----|--2--0--2--2----|--0--0--0--0----|--2--0--2--2-------|E |-----------------|--0--0--0--0----|----------------|--0--0--0--0------|
----------------|----------------|----------------|-------------------|--1--0--1--1----|----------------|--1--1--3--3----|-------------------|--2--2--2--2----|--0--0--0--0----|--0--0--0--0----|-------------------|--2--0--2--2----|--2--2--2--2----|--2--2--4--4----|--2--2--2--2-------|--0--0--0--0----|--2--0--2--2----|--3--3--5--5----|--2--0--2--2-------|-----------------|--0--0--0--0----|----------------|--0--0--0--0------|
----------------|----------------|----------------|----------------|--1--0--1--1----|----------------|--1--0--1--1----|----------------|--2--2--2--2----|--0--0--0--0----|--2--2--2--2----|--0--0--0--0----|--2--0--2--2----|--2--2--2--2----|--2--0--2--2----|--2--2--2--2----|--0--0--0--0----|--2--0--2--2----|--0--0--0--0----|--2--0--2--2----|----------------|--0--0--0--0----|----------------|--0--0--0--0----|
----------------|----------------|----------------|--0----|--0----|--0----|--1--0--1--1----|----------------|--1--1--3--3----|--0----|--3----|--0----|--2--2--2--2----|--0--0--0--0----|--0--0--0--0----|--1----|--4----|--2----|--2--0--2--2----|--2--2--2--2----|--2--2--4--4----|--2----|--4----|--2----|--0--0--0--0----|--2--0--2--2----|--3--3--5--5----|--2----|--5----|--0----|----------------|--0--0--0--0----|----------------|--0----|-------|-------|
--0--2----|--0----|--0----|--0----|--0--2----|--0----|--0----|--0----|--0----|--0------|--0--3----|--0----|--3----|--0----|--0--3----|--0----|--3----|--0----|--0----|--0------|--6--2----|--1----|--4----|--2----|--6--2----|--1----|--4----|--2----|--6----|--1------|--6--0----|--2----|--4----|--2----|--6--0----|--2----|--4----|--2----|--6----|--2------|--4-------|--2----|--5----|--0----|--4-------|--2----|--5----|--0----|--4----|--2------|----------|--0----|-------|-------|----------|--0----|-------|--------|-------|--0-----|
-----End of the first part, now the second guitar plays as well----------------- PART 2, Second guitar:
-------------------------------|----------------------------|-----2-----0-----2-------------|-----2-----0--2-------------|-------------------------------|----------------------------|--2----------------------------|--2-------------------------|-------------------------------|----------------------------|-------------------------------|----------------------------|
-------------------------------|-------------------------------|-----2-----2h-3--2-------------|-----2-----0-----2-------------|-------------------------------|-------------------------------|--2----------------------------|-------------------------------|-------------------------------|--2----------------------------|-------------------------------|-------------------------------|
--------0h-2--3-----2--3------ |--2--3--10--7-------------------------|--2h-3-------------------------|---------------8-----7h----8h-7-------|-------------------------------|--------------------------------------|-------------------------------|--------------------------------------|-------------------------------|--------------------------------------|-------------------------------|--------------------------------------|
|----------------------------|-------------------------------||-----7h-8--7----------------|-------------------------------||--9-----------9--7----------|-----------------2-----2-------||--------------------9--7----|-----------------0h2--0h2------||----------------------------|--10-9--7--5--2-----------0----||----------------------------|-------------------------------|
|--5-----7-----9----5--7h9--7----------------||----------------------------------10--------||--------------------------------------------||--------------------------------------------||--------------------------------------------||--------------------------------------------|
----------------------------|-------------|----------------------------|-------------|--9--7--6--7--6-------------|-------------|-----------------9--7--9----|--7--9-------|----------------------------|--------7----|----------------------------|-------------|
-------------------------------------------------------|----------------------|-------------------------------------------------------|----------------------|-----------------------------------------------7-------|--9--11-9--7--9--9----|-----------------------------------7-----9-------------|----------------------|--5--4--5--7-----7-----9-----10------------------------|----------------------|-------------------------------------------------------|----------------------|
-----------------------------------------------7-------|--7h-9-----9-----9-----10----9-----7-------------------|-----------------------------------------9-------------|-------------------------------------------------------|-------------------------------------------------------|-------------------------------------------------------|
-------------------------------------------------------|--10----9-----7-----7h-9-----9-----9-----10----9-------|-------------------------------------------------------|-------------------------------------------------------|-------------------------------------------------------|-------------------------------------------------------|
--------------7----------------------------------|--x--7--7--7--7--7----|--7-----------------10----7h----9-----9--9-------|-----7--7--7--7--7----|--------9----------------------------------------|--x--7--7--7--7--7----|-------------------------------------------------|--x--7--7--7--7--7----|-------------------------------------------------|--x--5--5--5--5--5----|-------------------------------------------------|----------------------|
PART 2, First GUITAR:
|--0----|--0----|--0----|--0----|--0----|--0----|--0----|--0----|-------||--2----|--2----|--2----|--2----|--0----|--0----|--0----|--0----|--2----||--2----|--2----|--2----|--2----|--0----|--0----|--0----|--0----|--2----||--2----|--2----|--2----|--2----|--2----|--2----|--2----|--2----|--2----||--0----|--0----|--0----|--0----|--2----|--2----|--2----|--2----|--0----||-------|-------|-------|-------|--0----|--0----|--0----|--0----|-------|
<--End Of Part 2 for the second guitar-------|-------|-------|-------|----|--0----|-----0----|--0----|--0----|--0----|--2----|--2----|--0----|--0----|----|--0----|-----0----|--0----|--0----|--0----|--2----|--2----|--0----|--0----|----|--1----|-----1----|--1----|--1----|--7----|--2----|--2----|--2----|--2----|----|--2----|-----1----|--2----|--2----|--7----|--0----|--0----|--2----|--2----|----|--2----|-----2----|--2----|--2----|--5----|-------|-------|--0----|--0----|----|--0----|-----0----|--0----|--0----|-------|
--0----|--0----|--0----|--0----|--0----|--0----|--0----|--0----|--0----|--0----|--0----|--0----|--0----|--0----|--2----|--11---|--1----|--7----|--6----|--6----|--1----|--2----|--12---|--2----|--7----|--7----|--6----|--2----|--0----|--12---|--2----|--5----|--7----|--4----|--2----|-------|--10---|--0----|-------|--5----|-------|--0----|
--------------0-----------------------0-------------|--0----|----------------------------------------------------|--0----|-----------6-----------------------6----------------|--1----|--------6-----------------------6-------------------|--2----|--4-----------------------4-------------------------|--2----|----------------------------------------------------|--0----|
--------------0-----------------------0-------------|--0----|----------------------------------------------------|--0----|-----------6-----------------------6----------------|--1----|--------6-----------------------6-------------------|--2----|--4-----------------------4-------------------------|--2----|----------------------------------------------------|--0----|
------------END OF PART 2:------------------------------------------------------------------ Part 3, both guitars: Second guitar:
----------------|-----2--3--5----|--7--------5--------2-------|-------0-----------|-----------3----|--5-------------|-----8--------7--------3----|-------------------|----------------|----------------|--------9--------7----------|--4----------------|----------------|----------------|----------------------------|-------------------|----------------|----------------|----------------------------|-------------------|----------------|----------------|----------------------------|-------------------|
First guitar:
----------------|----------------|-----------------|----------------|------------------|--2--0--2-------|--2--0--2-------|--1--0--1--5----|--1--0--1-------|--2--0--2--5-------|--2--2--2-------|--2--2--2-------|--2--2--2-------|--2--2--2-------|--2--2--2----------|--2--2--2--2----|--2--2--2--2----|--2--2--2-------|--2--2--2-------|--2--2--2----------|--0--0--0-------|--0--0--0-------|--0--0--0-------|--0--0--0--0----|--0--0--0----------|----------------|----------------|----------------|----------------|-------------------|
<-Start of part3 for the first guitar----------------|----------------|----------------|-------|--0----|--2--0--2-------|--1--0--1-------|--1--0--1-------|-------|--0----|--2--2--2-------|--2--2--2-------|--2--2--2-------|-------|--1----|--2--2--2--2----|--2--2--2-------|--2--2--2-------|-------|--2----|--0--0--0-------|--0--0--0-------|--0--0--0--0----|-------|--2----|----------------|----------------|----------------|-------|--0----|
-----------------------END OF PART 3------------------------------------- PART 4, ONLY THE FIRST GUITAR:
----------------|----------------|----------------|----------------|--1--0--1--1----|----------------|--1--1--3--3----|----------------|--2--2--2--2----|--0--0--0--0----|--0--0--0--0----|--0--0--0-------|--2--0--2--2----|--2--2--2--2----|--2--2--4--4----|--2--2--2-------|--0--0--0--0----|--2--0--2--2----|--3--3--5--5----|--2--0--2-------|----------------|--0--0--0--0----|----------------|--0--0--0-------|
----------------|----------------|----------------|----------------|--1--0--1--1----|----------------|--1--1--3--3----|----------------|--2--2--2--2----|--0--0--0--0----|--0--0--0--0----|--0--0--0-------|--2--0--2--2----|--2--2--2--2----|--2--2--4--4----|--2--2--2-------|--0--0--0--0----|--2--0--2--2----|--3--3--5--5----|--2--0--2-------|----------------|--0--0--0--0----|----------------|--0--0--0-------|
----------------|----------------|-----------------|------------------|--1--1--3--3----|----------------|--1--1--3--3----|-------------------|--0--0--0--0----|--0--0--0-------|--0--0--0--0----|--1--1--1----------|--2--2--4--4----|--2--2--2-------|--2--2--4--4----|--2--2--2----------|--3--3--5--5----|--2--0--2-------|--3--3--5--5----|--2--0--2----------|----------------|--0--0--0-------|----------------|--0--0--0----------|
END
Please rate this tab:
x1.0