Brand New - Noro tab

Hi everyone, Noro is a hidden gem of a song and
I want to get it out there as much as possible.
I sounded this out a few months ago, so heres
the song in its accurate form.

Tuning: Drop D

Introe)---15--15--15--14--10--12-12-12-10-----------------------------|b)---------------------------------------------------------------|g)----------------------------------------------------------- ---|2xd)---------------------------------------------------------------|a)---------------------------------------------------------------|E)---------------------------------------------------------------|
e)---------------------------------------------------------------|b)-------------------------------------------8---------8---------|g)---------9-------9--------9--------9---------------------------|d)------9-------9--------9--------9-------------9--------9-------|a)---7-------7--------7--------7-----------7---------7-----------|E)---------------------------------------------------------------|
e)--------------------------------------------------------------------|b)----8------8--------------------------------------------------------|g)--------------------------------------------------------------------|d)------9------9------------------------------------------------------| a)--7------7----------------------------------------------------------| verseE)--------------------------------------------------------------------|
(1:07)e)------------------------------------------------------------------|b)------------------------------------------------------------------|g)------------------------------------------------------------------|d)------------------------------------------------------------------|a)------------------------------------------------------------------|E)---5-5-5-3-5-3-5-3-3/8-3------5-5-5-3-5-3-5-3-3/8-3---------------|Im on my way out Im on my way out
(1:23) (Verse and Chorus guitar)-------------------------------------------------------------|-------------------------------------------------------------|-------------------------------------------------------------|--5--5--5--3-5--3--5--3--3/8--3-------10--10--10--8--10------|--5--5--5--3-5--3--5--3--3/8--3-------10--10--10--8--10------|--5--5--5--3-5--3--5--3--3/8--3-------10--10--10--8--10------|Why doesn't Anyone I know sleep Are they all
---------------------------------------------------------------|---------------------------------------------------------------|---------------------------------------------------------------|--8--10---8--10--8---------------------------------------------|--8--10---8--10--8---------------------------------------------|--8--10---8--10--8---------------------------------------------|all just scared of their dreams
After Chorus bit--7--8-8-8------|--7--7-7-7------|--7--9-9-9------| <4x--7--9-9-9------|--7--7-7-7------|----------------|
---------------------------------------------------------------|-------------------------------------------8---------8---------|---------9-------9--------9--------9---------------------------|------9-------9--------9--------9-------------9--------9-------|---7-------7--------7--------7-----------7---------7-----------|---------------------------------------------------------------|
--------------------------------------------------------------|----8------8--------------------------------------------------|--------------------------------------------------------------|------9------9------------------------------------------------|--7------7----------------------------------------------------|--------------------------------------------------------------|
Since you know the chorus guitar already, ill get to the bridge/solo ^ = Bend For these notes in the next two sets of rows, bend down and back up for each note with a symbol on it except for the "7" on the G string, just bend that one down and hold it down
Bridge-------------------------------------------------------------|-------------------------------------------------------------|-------------------------------------------------------------|-------------------------------------------------------------|---15^-15^-15^-15^-15^-15^-15^-15^----14^-14^-14^-14^--------|-------------------------------------------------------------|
------------------------------------------------|------------------------------------------------|----------------------------------7^------------|-----------------------3--3--x-----------x--x---|--12^-12^-12^-12^------3--3--x-----------x--x---|-----------------------3--3--x-----------x--x---|
------------------------------------------------------------------------|------------------------------------------------------------------------|------------------------------------------------------------------------|------------------------------------------------------------------------|---15^-15^-15^-15^-15^-15^-15^-15^----14^-14^-14^-14^--14^-14^-14^-14^--|------------------------------------------------------------------------|
--------------------------------------------------------|--------------------------------------------------------|--------------------------------------------------------|------12-10--12---12--10--12--12--x--12-----12--12--12--|--12--12-10--12---12--10--12--12--x--12-----12--12--12--|--------------------------------------------------------|
For the "7" on the G in this next row, bend it down then back up, and while still holding the note, slide it to the "5" on the G string.
------------------------------------------------------------|------------------------------------------------------------|--------------7^-/5-----------------------------------------|--5-5-5-3--------------5-3--8--3--------10-10-10---8--10----|--5-5-5-3--------------5-3--8--3--------10-10-10---8--10----|--5-5-5-3--------------5-3--8--3--------10-10-10---8--10----|
-----------------------------------------------------|-----------------------------------------------------|-----------------------------------------------------|---8--10--8----8^---8--------------------------------|---8--10--8---------8--------------------------------|---8--10--8---------8--------------------------------|
-------------------------------------------------------------|-------------------------------------------------------------|-------------------------------------------------------------|--5--5--5--3--5--3--5--3--5^--3-------10--10--10--8--10------|--5--5--5--3--5--3--5--3--5^--3-------10--10--10--8--10------|--5--5--5--3--5--3--5--3--5^--3-------10--10--10--8--10------|
-----------------------------------------------------|-----------------------------------------------------|-----------------------------------------------------|---8--10--8----8^---8--------------------------------|---8--10--8---------8--------------------------------|---8--10--8---------8--------------------------------|
Outro---------------------------------------------------------|---------------------------------------------------------|----------7-7^-------7-7-7^---8^---9^-9^-9^----9^-9^-----|---5-3----------3-3--------------------------------------|---5-3----------3-3--------------------------------------|---5-3----------3-3--------------------------------------|
------------------------------------------------------------------------|------------------------------------------------------------------------|---13^---7^-7^-7^---7^-7^-7^----9^--11^--12*---13^----------------------|------------------------------------------------------------------------|------------------------------------------------------------------------|------------------------------------------------------------------------|
Tap to rate this tab
 
# A B C D E F G H I J K L M N O P Q R S T U V W X Y Z