Breaking Benjamin - Skin tab

-------------------------------------------------------------------------------
			     Skin - Breaking Benjamin
-------------------------------------------------------------------------------
Tabbed by: metalmonkey147
Email:

Tuning: Drop C

|------------------------------------------------------||------------------------------------------------------||------------------------------------------------------||-1--1--X-X---X-1--1--X-8----6--6--X-X---X-6--6--X-9---| x2|-1--1--X-X---X-1--1--X-8----6--6--X-X---X-6--6--X-9---||-1--1--X-X---X-1--1--X-8----6--6--X-X---X-6--6--X-9---|
|---------------------------------------------------------||---------------------------7-6---------------------------||----8-7-8-10-8-7-8---8-7-8-----8-----8-7-8-10-8-7-8------||-/8----------------6-------------9-8----------------6\---||---------------------------------------------------------||---------------------------------------------------------|
|-------------------------------------------------||-------------------------------------------------||-------------------------------------------------||-1--1----1-1-1-1--1-8---6--6----6-6-6-6--6-9-----| x2|-1--1----1-1-1-1--1-8---6--6----6-6-6-6--6-9-----||-1--1----1-1-1-1--1-8---6--6----6-6-6-6--6-9-----| . . . . . . . . . . .
|-----------------------------------------------------||-----------------------------------------------------||-----------------------------------------------------||-1--1--X-X-1-1-1-1--1-8---6--6--X-X-6-6-6-6--6-9-----||-1--1--X-X-1-1-1-1--1-8---6--6--X-X-6-6-6-6--6-9-----||-1--1--X-X-1-1-1-1--1-8---6--6--X-X-6-6-6-6--6-9-----| . . . . . . . . . . .
|-----------------------------------------------------||-----------------------------------------------------||-----------------------------------------------------||-1--1--X-X-1-1-1-1--1-8---6--6--6--6--8--8--8--8-----||-1--1--X-X-1-1-1-1--1-8---6--6--6--6--8--8--8--8-----||-1--1--X-X-1-1-1-1--1-8---6--6--6--6--8--8--8--8-----| . . . . .
|-----------------------------------------------------||-----------------------------------------------------||---------7--8--------7--8--------7--8--------7--8----||-10--10--------8--8--------6--6--------6--6----------| x2|-10--10--------8--8--------6--6--------6--6----------||-10--10--------8--8--------6--6--------6--6----------|
|---------------------------------------------------||---------------------------------------------------||---------------------------------------------------||-1--1--1--1--8--8--8--8--6--6--6--6--6--6--6--6----| x4|-1--1--1--1--8--8--8--8--6--6--6--6--6--6--6--6----||-1--1--1--1--8--8--8--8--6--6--6--6--6--6--6--6----|
|-------------------------------------16p15-16p15---||---------------------------------------------------||---------------------------------------------------||-3--3--3--3--3--3--3--3--6--6--6--6----------------||-3--3--3--3--3--3--3--3--6--6--6--6----------------||-3--3--3--3--3--3--3--3--6--6--6--6----------------|
|------------------------------------------------------||------------------------------------------------------||------------------------------------------------------||-1--1--X-X---X-1--1--X-8----6--6--X-X---X-6--6--X-9---||-1--1--X-X---X-1--1--X-8----6--6--X-X---X-6--6--X-9---||-1--1--X-X---X-1--1--X-8----6--6--X-X---X-6--6--X-9---|
|--------------------------------||--------------------------------||--------------------------------||-1--1--X-X---X-1--1--X-8----6\--||-1--1--X-X---X-1--1--X-8----6\--||-1--1--X-X---X-1--1--X-8----6\--|
|-------------------------------------------------||-------------------------------------------------||-------------------------------------------------||-1--1----1-1-1-1--1-8---6--6----6-6-6-6--6-9-----| x2|-1--1----1-1-1-1--1-8---6--6----6-6-6-6--6-9-----||-1--1----1-1-1-1--1-8---6--6----6-6-6-6--6-9-----| . . . . . . . . . . .
|-----------------------------------------------------||-----------------------------------------------------||-----------------------------------------------------||-1--1--X-X-1-1-1-1--1-8---6--6--X-X-6-6-6-6--6-9-----||-1--1--X-X-1-1-1-1--1-8---6--6--X-X-6-6-6-6--6-9-----||-1--1--X-X-1-1-1-1--1-8---6--6--X-X-6-6-6-6--6-9-----| . . . . . . . . . . .
|-----------------------------------------------------||-----------------------------------------------------||-----------------------------------------------------||-1--1--X-X-1-1-1-1--1-8---6--6--6--6--8--8--8--8-----||-1--1--X-X-1-1-1-1--1-8---6--6--6--6--8--8--8--8-----||-1--1--X-X-1-1-1-1--1-8---6--6--6--6--8--8--8--8-----| . . . . .
|-----------------------------------------------------||-----------------------------------------------------||---------7--8--------7--8--------7--8--------7--8----||-10--10--------8--8--------6--6--------6--6----------| x2|-10--10--------8--8--------6--6--------6--6----------||-10--10--------8--8--------6--6--------6--6----------|
|---------------------------------------------------||---------------------------------------------------||---------------------------------------------------||-1--1--1--1--8--8--8--8--6--6--6--6--6--6--6--6----| x4|-1--1--1--1--8--8--8--8--6--6--6--6--6--6--6--6----||-1--1--1--1--8--8--8--8--6--6--6--6--6--6--6--6----|
|-------------------------------------16p15-16p15---||---------------------------------------------------||---------------------------------------------------||-3--3--3--3--3--3--3--3--6--6--6--6----------------||-3--3--3--3--3--3--3--3--6--6--6--6----------------||-3--3--3--3--3--3--3--3--6--6--6--6----------------|
|-----------------------------------------------------------------------||-----------------------------------------------------------------------||------------------------------------------------------------44444444---||-555555555555555555555555-88888888-666666666666666666666666------------||-----------------------------------------------------------------------||-----------------------------------------------------------------------|
|------------------------------------------------------------------------------||------------------------------------------------------------1010101010101010--||-333333333333333333333333-77777777-888888888888888888888888-------------------||------------------------------------------------------------------------------||------------------------------------------------------------------------------||------------------------------------------------------------------------------|
|-----------------------------------------------------------------------||-----------------------------------------------------------------------||------------------------------------------------------------44444444---||-555555555555555555555555-88888888-666666666666666666666666------------||-----------------------------------------------------------------------||-----------------------------------------------------------------------|
|----------------------------------------------------------||----------------------------------------------------10b---||-333333333333333333333333-77777777-8888888888888888-------||----------------------------------------------------------||----------------------------------------------------------||----------------------------------------------------------|
|-----------------------------------------------------||-----------------------------------------------------||---------7--8--------7--8--------7--8--------7--8----||-10--10--------8--8--------6--6--------6--6----------| x2|-10--10--------8--8--------6--6--------6--6----------||-10--10--------8--8--------6--6--------6--6----------|
|---------------------------------------------------||---------------------------------------------------||---------------------------------------------------||-1--1--1--1--8--8--8--8--6--6--6--6--6--6--6--6----| x8|-1--1--1--1--8--8--8--8--6--6--6--6--6--6--6--6----||-1--1--1--1--8--8--8--8--6--6--6--6--6--6--6--6----|
|-----------------------------||-----------------------------||-----------------------------||-3------------6--------------||-3------------6--------------||-3------------6--------------|
************************************ | . palm mute | / slide up | \ slide down | h hammer-on | p pull-off | ~ vibrato | * harmonic | x Mute note | b Bend | pb Pre-bend | br Bend release | pbr Pre-bend release | brb Bend release bend ************************************
Tap to rate this tab
 
# A B C D E F G H I J K L M N O P Q R S T U V W X Y Z