Breaking Benjamin - Breath tab

Umm... more of a musical look at it, its pretty accurate
if some one would like to mkae it more readable email me - josephledoux2@gmail.com
changes welcome too


where you see a t and then a number, it means to be played at the same. time for 
guitar 1 has the notation t4, it is to be played while guitar 2 is playing the part notated t4, 
exact time, listen to the song while playing it.

The tuning is the same throughout.
(Bb F Bb Eb G C)

                              BREATH
                      Breaking Benjamin
                              Phobia

GTR I

-------------------------------------------------|-------------------------------------------------|-------------------------------------------------|--9-9-9-9-X-X-9--9-10----------------------------| x2--7-7-7-7-X-X-7--7--7----------------------------|--7-7-7-7-X-X-7--7--7----------------------------|
---------------------------------------------------------------|---------------------------------------------------------------|---------------------------------------------------------------|--10----10--10--10---10-------9-----9---9---9----9-------------|--10----10--10--10---10------10----10--10--10---10-------------|--10----10--10--10---10-------9-----9---9---9----9-------------|
------------------------------------------------|------------------------------------------------|------------------------------------------------|--9-9-9-9-X-X-9--9-10---------------------------| x2--7-7-7-7-X-X-7--7--7---------------------------|--7-7-7-7-X-X-7--7--7---------------------------|
GTR 2----------------------------------------------|-20-17----17h18-17----------------------------|-------19--------------17---------------------| x2----------------------------------------------|----------------------------------------------|----------------------------------------------|
let ring-I
-19----20---19-------------------------------|----20---------20----------------------------|---------------------------------------------| x2---------------------------------------------|---------------------------------------------|---------------------------------------------|
------12--10---------------------------------|13---------------12--10----------------------|---12---------12-----------------------------|---------------------------------------------|---------------------------------------------|---------------------------------------------|
Verse
Gtr I (t1)-----------------------0---------------------|--------13-----------------------------------|-----14-----14h16--14------------------------|---14----------------------------------------|-0-------------------------------------------|---------------------------------------------|
* let ring---------------------------------------------|---------13------------13*-------------------|------14----14h16--14------------------------|---14----------------------------------------|-0-------------------------------------------|---------------------------------------------|
Gtr 2 (t1)
---------------------------------------------|---------------------------------------------|---------------------------------------------|---19----------------------------------------|---------------------------------------------|---------------------------------------------|(roll back vol. halfway)
Gtr 1 (t2)
-------------8-------------------------------|---------8------8----------------------------|------10------------8h10---------------------|---10----------------------------------------|-8-------------------------------------------|---------------------------------------------|
----------------------0----------------------|---------13----------------------------------|------14----14h16----------------------------|---14----------------------------------------|-0-------------------------------------------|---------------------------------------------|
Gtr 2 (t2)---------------------------------------------|---------------------------------------------|---------------------------------------------|--7--10---7-9-9------------------------------|--7--8---------------------------------------|--7------------------------------------------|
feedback-------------------------------------------|-----(0)-----------------------------------|-------------------------------------------|10-----------------------------------------|-----------7-------------------------------|-----------7-------------------------------|
-------------------------------------------|-------------------------------------------|-------------------------------------------|-------------------------------------------|-7-----------------------------------------|-7-----------------------------------------|
GTR I------------8--------------------------------|---------8----8-8h10-------------------------|------10-------------------------------------|---10----------------------------------------|-8-------------------------------------------|---------------------------------------------|
--------------------0------------------------|---------13---------13-----------------------|------14----14h16----------------------------|---14----------------------------------------|-0-------------------------------------------|---------------------------------------------|
PRE CHORUS-------------------------------------------|-------------------------------------------|----------------------/9-9-9-9-------------|--x-x-x--3-3-3-3-3-------------------------| x2--x-x-x--3-3-3-3-3-------------------------|--x-x-x--3-3-3-3-3-------------------------|
---------------------------------------------|---------------------------------------------|------------------/9-9-9-9-------------------|-7--7--7--7--7-------------------------------|-7--7--7--7--7-------------------------------|-7--7--7--7--7-------------------------------|
----------------------------------------------|----------------------------------------------|----------------------------------------------|-7-7-2-7-9-3-3-3-3-3-x-x-x-3-3-3-3-3-3--------|-7-7-2-7-9-3-3-3-3-3-x-x-x-3-3-3-3-3-3--------|-7-7-2-7-9-3-3-3-3-3-x-x-x-3-3-3-3-3-3--------|
(12 of these) (12)-333333333333-0000-333333333333-0000----------|----------------------------------------------|----------------------------------------------|----------------------------------------------|----------------------------------------------|----------------------------------------------|
(12 of these) (12)-555555555555-3333-555555555555-3333--------|--------------------------------------------|--------------------------------------------|--------------------------------------------|--------------------------------------------|--------------------------------------------|
-888888888888-7777-888888888888-7777--------|--------------------------------------------|--------------------------------------------|--------------------------------------------|--------------------------------------------|--------------------------------------------|(these are tens; there are twelve)
-101010101010101010-------------------------|--------------------------------------------|--------------------------------------------|--------------------------------------------|--------------------------------------------|--------------------------------------------|
then you play the verse again
BRIDGE--------------------------------------------------------------|--------------------------------------------------------------|-----10-10----------------------------------------------------|----------------7-7-7-7-9-9-9-9-10-10-10-10-10-10-10----------|-7-7-------7-7-7-7-7-7-7-7-7-7--7--7--7---7--7--7--7----------|--------------------------------------------------------------|
PM-----------------------------------------|I-------------------------------------------------------------|-------------------------------------------------------------|-9-9-9-9-9-9-9-5---4--5--4------4-4-4-4-4-4-4-4--------------|-7-7-7-7-7-7-7---7--7--7---7---------------------------------|-------------------------------------------------------------|-------------------------------------------------------------|
CHORUS-8---8-11-8----8----8-10-7-7-8----8-10-8-----|---8---------8----8-------------8---------8--|---------------------------------------------|---------------------------------------------|---------------------------------------------|---------------------------------------------|
---------------------------------------------|---------------------------------------------|-5---5-7-5-4-5---5--7--5-4--5---5-7-5-4------|---5------------5--------------5-------------|---------------------------------------------|---------------------------------------------|
-8---8-10--8----8-8-8-8-7--7-8-8------------|---8----------8------------------x----------|---------------------------------5----------|--------------------------------------------|--------------------------------------------|--------------------------------------------|
OUTRO
----------------0-----------------------------|-------1--------1-----------------------------|-----2---2h4-2--------------------------------|---2------------------------------------------|-0--------------------------------------------|----------------------------------------------|
Tap to rate this tab
 
# A B C D E F G H I J K L M N O P Q R S T U V W X Y Z