Breaking Benjamin - Anthem Of The Angels tab

-------------------------------------------------------------------------------
		   Anthem of the Angels - Breaking Benjamin
-------------------------------------------------------------------------------
Tabbed by: metalmonkey147
Email:

Tuning: Drop C

(Guitar comes in at 0:07)|---------------------------------------------------------------------------||-14------------------------------------------------------------------------||---------------------------------------------------------------------------||-------0-0-0-0---2---2-2h4-4-----------0-0-0-0---2---2-2h4-4---------------||-------0-0-0-0---2---2-2h4-4-----------0-0-0-0---2---2-2h4-4---------------||-------0-0-0-0---2---2-2h4-4---7p6-2h4-0-0-0-0---2---2-2h4-4---7p6-7h9-----|
|---------------------------------------------------------------------------||---------------------------------------------------------------------------||---------------------------------------------------------------------------||-0-0-0-0---2---2-2h4-4-----------0-0-0-0---2---2-2h4-4---------------------||-0-0-0-0---2---2-2h4-4-----------0-0-0-0---2---2-2h4-4---------------------||-0-0-0-0---2---2-2h4-4---7p6-2h4-0-0-0-0---2---2-2h4-4---7p6-2---0---------|
Im sorry, i couldnt figure out exactly how the strumming patterns went here soi just left most of the notes held (0:57)|-------------------------------------------------------------||-------------------------------------------------------------||-------------------------------6-------6----------(6)--------||--6---7-----7-------(7)--------6-------6----------(6)--------||--6---7-----7-------(7)--------4-------4----------(4)--------||--6---7-----7-------(7)--------------------------------------|
|-------------------------------------------------------------||-------------------------------------------------------------||-------------------------------------------------------------||--4-----4------2-2-----2-2----0-----0-------(0)-------2------||--4-----4------2-2-----2-2----0-----0-------(0)-------2------||--4-----4------2-2-----2-2----0-----0-------(0)-------2------|
|-------------------------------------------------------------||--10--9---------------------------10--9----------------------||--------9-------------------------------9------9/11----------||-----------11----------11---9h11-----------11----------------||---------------11--12----------------------------------------||-------------------------------------------------------------|
(1:56)|-------------------------------------------------------------||-------------------------------------------------------------||-------------------------------6-------6----------(6)--------||--6---7-----7-------(7)--------6-------6----------(6)--------||--6---7-----7-------(7)--------4-------4----------(4)--------||--6---7-----7-------(7)--------------------------------------|
|-------------------------------------------------------------||-------------------------------------------------------------||-------------------------------------------------------------||--4-----4------2-2-----2-2----0-----0-------(0)-------2------||--4-----4------2-2-----2-2----0-----0-------(0)-------2------||--4-----4------2-2-----2-2----0-----0-------(0)-------2------|
|-------------------------------------------------------------||-------------------------------------------------------------||-------------------------------6-------6----------(6)--------||------7-----7-------(7)--------6-------6----------(6)--------||------7-----7-------(7)--------4-------4----------(4)--------||------7-----7-------(7)--------------------------------------|
|-------------------------------------------------------------||-------------------------------------------------------------||-------------------------------------------------------------||--4-----4------2-2-----2-2----0-----0-------(0)-------2------||--4-----4------2-2-----2-2----0-----0-------(0)-------2------||--4-----4------2-2-----2-2----0-----0-------(0)-------2------|
|---------------------------------------------------------------------------------------||--------------------------------------12-12-12-12-------------------------14-12-12-12--||-11-11-11-11-/13-13-13-13-14-14-14-14----------------------14-14-13-------14-13-13-13--||-----------------------------------------------------12-------------12-----------------||---------------------------------------------------------------------------------------||---------------------------------------------------------------------------------------|
|---------------------------------------------------------------------------------------||---------------------------------------------------------------------------------------||-11-11-11-11-/13-13-13-13-------------13-13-13-13----------14-14-13--------------------||--------------------------14-14-14-14----------------12-------------12-----------------||--------------------------------------------------------------------------11-12-12-12--||---------------------------------------------------------------------------------------|
|---------------------------------------------------------------------------------------||--------------------------------------------------------------------------14-15-15-15--||-11-11-11-11-/13-13-13-13-14-14-14-14----------------------14-14-13-------14-16-16-16--||--------------------------------------14-14-14-14----12-------------12-----------------||---------------------------------------------------------------------------------------||---------------------------------------------------------------------------------------|
|---------------------------------------------------------------------------------------||--------------------------14-14-14-14-17-17-17-17-17-15----------17-15-------14--------||-11-11-11-11-/13-13-13-13--------------------------------------------------------------||---------------------------------------------------------------------------------------||---------------------------------------------------------------------------------------||---------------------------------------------------------------------------------------|
(3:12)|-------------------------------------------------------------||-------------------------------------------------------------||-------------------------------------------------------------||--4-----4------2-2-----2-2----0-----0-------(0)-------2------||--4-----4------2-2-----2-2----0-----0-------(0)-------2------||--4-----4------2-2-----2-2----0-----0-------(0)-------2------|
|-------------------------------------------------------------||-------------------------------------------------------------||-------------------------------6-------6----------(6)--------||------7-----7-------(7)--------6-------6----------(6)--------||------7-----7-------(7)--------4-------4----------(4)--------||------7-----7-------(7)--------------------------------------|
|-------------------------------------------------------------||-------------------------------------------------------------||-------------------------------------------------------------||--4-----4------2-2-----2-2----0-----0-------(0)-------2------||--4-----4------2-2-----2-2----0-----0-------(0)-------2------||--4-----4------2-2-----2-2----0-----0-------(0)-------2------|
|-------------------------------------------------------------||-------------------------------------------------------------||-------------------------------------------------------------||--4-----4------2-2-----2-2----0-----0-------(0)-------2------||--4-----4------2-2-----2-2----0-----0-------(0)-------2------||--4-----4------2-2-----2-2----0-----0-------(0)-------2------|
|-------------------------------------------------------------||-------------------------------------------------------------||-------------------------------------------------------------||--4----(4)-----2----(2)----2------0--------------------------||--4----(4)-----2----(2)----2------0--------------------------||--4----(4)-----2----(2)----2------0--------------------------|
************************************ | . palm mute | / slide up | \ slide down | h hammer-on | p pull-off | ~ vibrato | * harmonic | x Mute note | b Bend | pb Pre-bend | br Bend release | pbr Pre-bend release | brb Bend release bend ************************************
Tap to rate this tab
 
# A B C D E F G H I J K L M N O P Q R S T U V W X Y Z