Breaking Benjamin - Broken Soul tab

Okay, i got this updated cuz it was hard to read, im a freckin retard and because it was 
wrong. Im sorry.

This song is in Drop C now.

------------------------------------------|------------------------------------------|-5-5-5-7----------------------------------| X-5-5-5-7-0-0-0-0-3-0-0-0-0-3-0-0-0-0------| 4-3-3-3-5-0-0-0-0-3-0-0-0-0-3-0-0-0-0------|---------0-0-0-0-3-0-0-0-0-3-0-0-0-0------|
The Verse Riff is a bit the same, but it sounds different.
-----------------------------------------------|-----------------------------------------------|-5-5-5-7---------------------------------------|-5-5-5-7-0-0-0-0-0-3-0-0-0-0-0-3-0-0-0-0-0-----|-3-3-3-5-0-0-0-0-0-3-0-0-0-0-0-3-0-0-0-0-0-----|---------0-0-0-0-0-3-0-0-0-0-0-3-0-0-0-0-0-----|
Chorus
--------------------------------|----------10--------------------|-----------9----3--10-----------| X-0----3----7----3--10-----------| 2-0----3---------1--8------------|-0----3-------------------------|
---------------------------------|---------------------------------|-----------5-----3--10-----------| X-0----3----5-----3--10-----------| 2-0----3----3-----1--8------------|-0----3--------------------------|
1st Solo (I know the one I did last time was messy and sucked, but this one is the real 100%)
---------------------------------|-15--15-13----13-15--15-13----13-|-----------14--------------14----|---------------------------------|---------------------------------|---------------------------------|
--------------------------------------------|----------|--15-13----13-------------------------------|----------|--------14----14-12-14-12----12-------------|----------|--------------------------15----15-12-15-12-|----------|--------------------------------------------|----------|--------------------------------------------|----------|
Back to the verse
-----------------------------------------------|-----------------------------------------------|-5-5-5-7---------------------------------------|-5-5-5-7-0-0-0-0-0-3-0-0-0-0-0-3-0-0-0-0-0-----|-3-3-3-5-0-0-0-0-0-3-0-0-0-0-0-3-0-0-0-0-0-----|---------0-0-0-0-0-3-0-0-0-0-0-3-0-0-0-0-0-----|
--------------------------------|----------10--------------------|-----------9----3--10-----------| X-0----3----7----3--10-----------| 2-0----3---------1--8------------|-0----3-------------------------|
---------------------------------|---------------------------------|-----------5-----3--10-----------| X-0----3----5-----3--10-----------| 2-0----3----3-----1--8------------|-0----3--------------------------|
This will be by one guitar(rhythm), playing by itself, and the lead coming in at the string power chords
-----------------------------------------------|-----------------------------------------------|-5-5-5-7---------------------------------------|-5-5-5-7-0-0-0-0-0-3-0-0-0-0-0-3-0-0-0-0-0-----|-3-3-3-5-0-0-0-0-0-3-0-0-0-0-0-3-0-0-0-0-0-----|---------0-0-0-0-0-3-0-0-0-0-0-3-0-0-0-0-0-----|
At the end the lead will do a pick slide, which is pretty cool. Then...
--------------------------------------|--------------------------------------|-7------------------------------------| X (*this is a picked note. Hold the-7-0-0-0--0--0--0---0-0-0-------------| 8 plectrum at the end and make sure-5-0-0-0--0--0--0---0-0-0--3-3-3-5*---| your thumb grazes the string)---0-0-0--0--0--0---0-0-0-------------|
-----------------|-----------------|-7---10--5---7---|-7---10--5---7---|-5---8---3---5---|-----------------|
------------|-----------------------------------|------------|-----------------------------------|-7---10--5--|-7-7-x-x-x-7-7-x-x-x-7-7-x-x-x-7-7-|-7---10--5--|-7-7-x-x-x-7-7-x-x-x-7-7-x-x-x-7-7-|-5---8---3--|-5-5-x-x-x-5-5-x-x-x-5-5-x-x-x-5-5-|------------|-----------------------------------|Thats all i have for now, but more coming soon!
Tap to rate this tab
 
# A B C D E F G H I J K L M N O P Q R S T U V W X Y Z