Breaking Benjamin - Diary Of Jane tab

im pretty sure this is right if its not i dont realy give a fuck just leave me
rate it bad or w.e you want

for all you fuckin dumbasses out there that dont know that if the taber doesnt put the 
of the song on the tab that means its fuckin standard!!

|-------------------------------|---------------------------------||-------------------------------|---------------------------------||----14----14----14----14----15-|-----14----14----17----15----14--||-12----12----12----12----12----|--12----12----12----12----12-----||-------------------------------|---------------------------------||-------------------------------|---------------------------------|
Lead|-------------------------------|---------------------------------||-------------------------------|---------------------------------||----14----14----14----14----15-|-----14----14----17----15----14--||-12----12----12----12----12----|--12----12----12----12----12-----||-------------------------------|---------------------------------||-------------------------------|---------------------------------|
Lead|-------------------------------|---------------------------------||-------------------------------|---------------------------------||----14----14----14----14----15-|-----14----14----17----15----14--||-12----12----12----12----12----|--12----12----12----12----12-----||-------------------------------|---------------------------------||-------------------------------|---------------------------------|
Lead|-------------------------------|---------------------------------||-------------------------------|---------------------------------||----14----14----17----15----14-|-----14----14----17----15----14--||-12----12----12----12----12----|--12----12----12----12----12-----||-------------------------------|---------------------------------||-------------------------------|---------------------------------|
Lead|-------------------------------|---------------------------------||-------------------------------|---------------------------------||----14----14----17----15----14-|-----14----14-----14~~~~~~~------||-12----12----12----12----12----|--12----12----12-----------------||-------------------------------|---------------------------------||-------------------------------|---------------------------------|
PRE VERSE
Lead|-------------------------------|------------------------------||-------------------------------|------------------------------||----14----14----17----15----14-|-----14----14-----9~~~~~~~----||-12----12----12----12----12----|--12----12----12--------------||-------------------------------|------------------------------||-------------------------------|------------------------------|
Lead|-------------------------------|------------------------------||-------------------------------|------------------------------||----14----14----17----15----14-|-----14----14-----9~~~~~~~----||-12----12----12----12----12----|--12----12----12--------------||-------------------------------|------------------------------||-------------------------------|------------------------------|
VERSE
Lead|-------------------------|-----------------------------|-------------||-------------------------|-----------------------------|-------------||---------------7-------7-|-------------------7-------7-|-7-------10--| x2|----------------7-------7|--------------------7-------7|-5--------8--||--0-0--0--0-0-----0-0----|0-0--0-0-0-0--0-0-----0-0----|-5---0-0--8--||--0-0--0--0-0-----0-0----|0-0--0-0-0-0--0-0-----0-0----|-5---0-0--8--|PM____________|NH_|PM_|NH_|PM_______________|NH_|PM_|NH_| PM__|
CHORUS
Lead|-------------------------------------------------||-------------------------------------------------||-14-14-14-12-12-12-14-14-14-12-12-12-14-14-12-12-||-------------------------------------------------||-------------------------------------------------||-------------------------------------------------|
|-------------------------------------------------||-------------------------------------------------||-14-14-14-12-12-12-15-15-15-15-15-15-15-15-15-15-||-------------------------------------------------||-------------------------------------------------||-------------------------------------------------|
|-------------------------------------------------||-------------------------------------------------||-17-17-17-17-17-17-17-17-17-17-17-17-17-17-17-17-||-------------------------------------------------||-------------------------------------------------||-------------------------------------------------|
|-------------------------------------------------||-------------------------------------------------||-15-15-15-15-15-15-15-15-15-15-15-15-15-15-15-15-||-------------------------------------------------||-------------------------------------------------||-------------------------------------------------|
|--------------------|--------------------||--------------------|--------------------||-14---15---17---15--|-14---15---17---15--||--------------------|--------------------||--------------------|--------------------||--------------------|--------------------|
PRE VERSE
Lead|-------------------------------|------------------------------||-------------------------------|------------------------------||----14----14----17----15----14-|-----14----14-----9~~~~~~~----||-12----12----12----12----12----|--12----12----12--------------||-------------------------------|------------------------------||-------------------------------|------------------------------|
VERSE 2
|-------------------------|-----------------------------|-------------||-------------------------|-----------------------------|-------------||---------------7-------7-|-------------------7-------7-|-7--------9--||--0-0--0--0-0---7-0-0---7|0-0--0-0-0-0--0-0---7-0-0---7|-5---0-0--8--||--0-0--0--0-0-----0-0----|0-0--0-0-0-0--0-0-----0-0----|-5---0-0--8--||--0-0--0--0-0-----0-0----|0-0--0-0-0-0--0-0-----0-0----|-5---0-0--8--|PM____________|NH_|PM_|NH_|PM_______________|NH_|PM_|NH_| PM__|
|-------------------------|-----------------------------|-------------||-------------------------|-----------------------------|-------------||---------------7-------7-|-------------------7-------7-|-7------1010-||--0-0--0--0-0---7-0-0---7|0-0--0-0-0-0--0-0---7-0-0---7|-5-------8-8-||--0-0--0--0-0-----0-0----|0-0--0-0-0-0--0-0-----0-0----|-5-------8-8-||--0-0--0--0-0-----0-0----|0-0--0-0-0-0--0-0-----0-0----|-5-------8-8-|PM____________|NH_|PM_|NH_|PM_______________|NH_|PM_|NH_|
CHORUS 2
Lead|-------------------------------------------------||-------------------------------------------------||-14-14-14-12-12-12-14-14-14-12-12-12-14-14-12-12-||-------------------------------------------------||-------------------------------------------------||-------------------------------------------------|
|-------------------------------------------------||-------------------------------------------------||-14-14-14-12-12-12-15-15-15-15-15-15-15-15-15-15-||-------------------------------------------------||-------------------------------------------------||-------------------------------------------------|
|-------------------------------------------------||-------------------------------------------------||-17-17-17-17-17-17-17-17-17-17-17-17-17-17-17-17-||-------------------------------------------------||-------------------------------------------------||-------------------------------------------------|
|-------------------------------------------------||-------------------------------------------------||-15-15-15-15-15-15-15-15-15-15-15-15-15-15-15-15-||-------------------------------------------------||-------------------------------------------------||-------------------------------------------------|
|-------------------------------------------------||-------------------------------------------------||-14-14-14-12-12-12-14-14-14-12-12-12-14-14-12-12-||-------------------------------------------------||-------------------------------------------------||-------------------------------------------------|
|-------------------------------------------------||-------------------------------------------------||-14-14-14-12-12-12-15-15-15-15-15-15-15-15-15-15-||-------------------------------------------------||-------------------------------------------------||-------------------------------------------------|
|-------------------------------------------------||-------------------------------------------------||-17-17-17-17-17-17-17-17-17-17-17-17-17-17-17-17-||-------------------------------------------------||-------------------------------------------------||-------------------------------------------------|
|-------------------------------------------------||-------------------------------------------------||-15-15-15-15-15-15-15-15-15-15-15-15-15-15-15-15-||-------------------------------------------------||-------------------------------------------------||-------------------------------------------------|
|--------------------|--------------------||--------------------|--------------------||-14---15---17---15--|-14---15---17---15--||--------------------|--------------------||--------------------|--------------------||--------------------|--------------------|
BRIDGELead|---------------|--------------------|--------------|--------------------||--15-17--------|--------------------|-15-17--------|----------13~-------||--------17-----|-----12-14-12-11----|-------17-----|----12-14-----------||---------------|--15-------------12-|--------------|-15-----------------||---------------|--------------------|--------------|--------------------||---------------|--------------------|--------------|--------------------|
|---------------------|---------------|--------------------|------------|-----------||---------------------|--15-17--------|--------------------|--15-17-18~-|-15-17-----||--12~~~~~~14~~~~~~---|--------17-----|----12-14-12-11-----|------------|-------17--||---------------------|---------------|-15-------------12--|------------|-----------||---------------------|---------------|--------------------|------------|-----------||---------------------|---------------|--------------------|------------|-----------|
CHORUS 3
Lead|-------------------------------------------------||-------------------------------------------------||-14-14-14-12-12-12-14-14-14-12-12-12-14-14-12-12-||-------------------------------------------------||-------------------------------------------------||-------------------------------------------------|
|-------------------------------------------------||-------------------------------------------------||-14-14-14-12-12-12-15-15-15-15-15-15-15-15-15-15-||-------------------------------------------------||-------------------------------------------------||-------------------------------------------------|
|-------------------------------------------------||-------------------------------------------------||-17-17-17-17-17-17-17-17-17-17-17-17-17-17-17-17-||-------------------------------------------------||-------------------------------------------------||-------------------------------------------------|
|-------------------------------------------------||-------------------------------------------------||-15-15-15-15-15-15-15-15-15-15-15-15-15-15-15-15-||-------------------------------------------------||-------------------------------------------------||-------------------------------------------------|
|-------------------------------------------------||-------------------------------------------------||-14-14-14-12-12-12-14-14-14-12-12-12-14-14-12-12-||-------------------------------------------------||-------------------------------------------------||-------------------------------------------------|
|-------------------------------------------------||-------------------------------------------------||-14-14-14-12-12-12-15-15-15-15-15-15-15-15-15-15-||-------------------------------------------------||-------------------------------------------------||-------------------------------------------------|
|-------------------------------------------------||-------------------------------------------------||-17-17-17-17-17-17-17-17-17-17-17-17-17-17-17-17-||-------------------------------------------------||-------------------------------------------------||-------------------------------------------------|
|-------------------------------------------------||-------------------------------------------------||-15-15-15-15-15-15-15-15-15-15-15-15-15-15-15-15-||-------------------------------------------------||-------------------------------------------------||-------------------------------------------------|
ENDING
Lead|-------------------------------|------------------------------||-------------------------------|------------------------------||----14----14----17----15----14-|-----14----14-----9~~~~~~~----||-12----12----12----12----12----|--12----12----12--------------||-------------------------------|------------------------------||-------------------------------|------------------------------|
Lead|-------------------------------|------------------------------||-------------------------------|------------------------------||----14----14----17----15----14-|-----14----14-----9~~~~~~~----||-12----12----12----12----12----|--12----12----12--------------||-------------------------------|------------------------------||-------------------------------|------------------------------|
Tap to rate this tab
 
# A B C D E F G H I J K L M N O P Q R S T U V W X Y Z