Bring Me The Horizon - Liquor And Love Lost tab version 2

Tabbed by: TheRockArtist

. = palm mute
~ = hold
<#> = pinch harmonic
^ = bend
h = hammer on



Part1|--------------------------------||--------------------------------||--------------------------------||-0~~~~--0~~---------------------||-0~~~~--0~~--88888888-7777-4444-||-0~~~~--0~~---------------------|
Part2|--------------------------------------------------||--------------------------------------------------||--------------------------------------------------||--------------------------------------------------| x2|---1010-88-77-88-77-55-44-55-44-------------------||-00-----------------------------88-77-88-77-55-33-|
Part3|-----------------------------------------------------------------||-----------------------------------------------------------------||-----------------------------------------------------------------||-----------------------------------------------------------------| x2|-----10---8---7---8---7---5---4---5---4--------------------------||-0-0----0---0---0---0---0---0---0---0---0-8-0-7-0-8-0-7-0-5-0-3~-| . . . . . . . . . . . . . . . .
Part4 (x4)|-----------------------------------------------------------------------||-----------<11>----------<10>-----<11>---------------------------------||-----10h13----------9h12-----------------------------------------------||-----------------------------------------------------------------------||-0-0------------0-0-----------0-0----------7---8---10---8---7---5--<4>-||-0-0------------0-0-----------0-0------0-0---0---0----0---0---0---0----| . . . . . . . . . . . . . .
Part3|-----------------------------------------------------------------||-----------------------------------------------------------------||-----------------------------------------------------------------||-----------------------------------------------------------------||-----10---8---7---8---7---5---4---5---4--------------------------||-0-0----0---0---0---0---0---0---0---0---0-8-0-7-0-8-0-7-0-5-0-3~-| . . . . . . . . . . . . . . . .
Part2|--------------------------------------------------||--------------------------------------------------||--------------------------------------------------||--------------------------------------------------||---1010-88-77-88-77-55-44-55-44-------------------||-00-----------------------------88-77-88-77-55-33-|
Guitar1 - Solo"..I drink the day away..."|------------------------------------------||------------------------------------------||-15-13-12-13-12----12---------------------||----------------15----15-13-15-13-12-10~--||------------------------------------------||------------------------------------------|
|--------------------------------------------------||--------------------------------------------------||-------------------------------13-12~--17~-17~~~--||-10-10-10-9-10-12-10-12-13-12---------------------||--------------------------------------------------||--------------------------------------------------|
|------------------------------------------||------------------------------------------||-------20-------20-------20-------20------||-17-18----17-18----17-18----17-18----17~--||------------------------------------------||------------------------------------------|
|----------------------------------------------------||----------------------------------------------------||----------------------------------------------------||-17-18-15-17-15-13-15-13-12-13-12-10-12-10-8-10~----||----------------------------------------------------||------------------------------------------------10--|
|------------------------------------------------------------------||-----------------------------16-15----15--------------------------||----------10----------13-12~-------17----17-15-17-15-14-15-14-----||-10-12-13----13-12-13-----------------------------------------17--||------------------------------------------------------------------||------------------------------------------------------------------|
|----------21-----------19-17-16-17-16----16--------------------------||----16-20----20-16--------------------18----18-16-18-16-15-16-15-----||-17----------------17~-------------------------------------------17--||---------------------------------------------------------------------||---------------------------------------------------------------------||---------------------------------------------------------------------|
|-----------------------------------------------------------------||-15--------------------------------------------------------------||----17-15-17-15-13-15-13----13----------------------------13-15--||-------------------------17----17-15-17-15-13----13-15-17--------||----------------------------------------------17-----------------||-----------------------------------------------------------------|
|----------21----------------19----------------21-----------||----16-20----20-16----16-20----20-16----16-20----20-16-----||-17----------------17----------------17----------------17--||-----------------------------------------------------------||-----------------------------------------------------------||-----------------------------------------------------------|
|-------19----------------21----------------19--------||-16-20----20-16----16-20----20-16----16-20----20-16--||----------------17----------------17-----------------||-----------------------------------------------------||-----------------------------------------------------||-----------------------------------------------------|
|-17-16----16---------------------------||-------18----18-16-18-16-15------------||----------------------------19^^^^-17--||---------------------------------------||---------------------------------------||---------------------------------------|
Guitar2 - Under Solo|--------------------------------------------------------||--------------------------------------------------------||--------------------------------------------------------||-0~~~~--8~~~~--5~~~~--6~~~~--7~~~~--8~~~~--5~~~~--6~~~~-||-0~~~~--8~~~~--5~~~~--4~~~~--5~~~~--8~~~~--5~~~~--4~~~~-||-0~~~~--8~~~~--5~~~~----------------8~~~~--5~~~~--------|
|------------------------------------------------------------||------------------------------------------------------------||------------------------------------------------------------||-7-777-777-777--------------------------------6-666-666-666-| x2|-5-555-555-555--8-888-888-888--5-555-555-555--4-444-444-444-||----------------8-888-888-888--5-555-555-555----------------| ... ... ... ... ... ... ... ... ... ... ... ...
|---------------------------------------------||---------------------------------------------||---------------------------------------------||---------------------------------------------||------5555-7777-8888------10101010-8888-7777-||-0000----------------8888--------------------|
|-------------------------------------------------------||-------------------------------------------------------||---------------------------------------------------<9>-||-------------------------------------------------------| x2|------5555-7777-8888-------------12121212-10101010-----||-5555----------------11-11-11-11-----------------------|
Part5|---------------------------------------------------------------------||---------------------------------------------------------------------||---------------------------------------------------------------------||---------------------------------------------------------------------| x3|-0-4-3-1--5h8--0-4-3-1--5h8-6h9--0-4-3-1--5h8--0-4-3-1--5h8-6h9-7h10-||-0-4-3-1-------0-4-3-1-----------0-4-3-1-------0-4-3-1---------------| . . . . . . . . . . . . . . . .
|--------------------------------------------------------------------------||--------------------------------------------------------------------------||--------------------------------------------------------------------------||--------------------------------------------------------------------------||-0-4-3-1--5h8--0-4-3-1--5h8-6h9--0-4-3-1--5h8--0-4-3-1--5h8-6h9-7h10-8h11-||-0-4-3-1-------0-4-3-1-----------0-4-3-1-------0-4-3-1--------------------| . . . . . . . . . . . . . . . .
Part6|----------------------------------------------------------------||----------------------------------------------------------------||---------<3>----------<3>-<4>----------<3>----------<3>-<4>-<5>-||----------------------------------------------------------------| x3|-0-4-3-1------0-4-3-1----------0-4-3-1------0-4-3-1-------------||-0-4-3-1------0-4-3-1----------0-4-3-1------0-4-3-1-------------| . . . . . . . . . . . . . . . .
|--------------------------------------------------------------------||--------------------------------------------------------------------||---------<3>----------<3>-<4>----------<3>----------<3>-<4>-<5>-<6>-||--------------------------------------------------------------------||-0-4-3-1------0-4-3-1----------0-4-3-1------0-4-3-1-----------------||-0-4-3-1------0-4-3-1----------0-4-3-1------0-4-3-1-----------------| . . . . . . . . . . . . . . . .
Thanks..
Tap to rate this tab
 
# A B C D E F G H I J K L M N O P Q R S T U V W X Y Z