Bring Me The Horizon - Count Your Blessings tab

                 

               Bring Me The Horizon - Count Your Blessings


Tracks:
1. Pray For Plague
2. Tell Slater Not To Wash His Dick
3. For Stevie Wonders Eyes Only (Braile)
4. A Lot Like Vegas
5. Black And Blue
6. Slow Dance
7. Liquor & Love Lost
8. (I Used To Make Out With) Medusa
9. Fifteen Fathoms, Counting
10. Off The Heezay





1. PRAY FOR PLAGUE:

0:00 - 0:03|-----------------------------------------------------------||-----------------------------------------------------------||--------------------------------------------------8h11p8---||--1-4-3-1------------------------------7h10p7--------------||--1-4-3-1-----6--9----5h8p5--4h7p4-------------------------||--1-4-3-1--0-------0---------------0-0--------0-0----------| * * * * * * * *
0:04 - 0:05|--------------------------------------||--------------------------------------||--7---6-6-9-----------------8-10-11---||---------------------7-9-10-----------||--------------7-9-10------------------||----0---------------------------------| *
0:06 - 0:13|-----------------------------------------------------------||-----------------------------------------------------------||-----------------------------------------------------------| x2|--------------------3----------------------7-----6---------||----5h8-4-----5-----------6------5h8-4-----------------8---||--0-------0-0---0-0---0-0----0-0-------0-0---0-0---0-0-----| * * * * * * * * * * * * * * *
0:14 - 0:15|------------||------------||---[12]~ ---||------------||------------||------------|
0:16 - 0:49|-----------------------------------------------------------|----------- \|-----------------------------------------------------------| ---------- \|-----------------------------------------------------------| --------- \|--------------------3----------------------7-----6---------| \ both- \ x2|----5h8-4-----5-----------6------5h8-4-----------------8---| ------- \|--0-------0-0---0-0---0-0----0-0-------0-0---0-0---0-0-----| ------ \
* * * * * * * * * * * * * * * \ \|---------------------------------------------------------------------||---------------------------------------------------------------------||------7h10-6------7-----10-----8------7h10-6-----6h9---7h10---8h11---||---------------------------------------------------------------------||---------------------------------------------------------------------||--0-0---------0-0---0-0----0-0----0-0--------0-0-----0------0--------| * * * * * * * * * * * * * *
0:50 - 0:53|---------------------------------------------------||---------------------------------------------------||----------------------------[12]bend--[14]bend-----||---------------------------------------------------||--5----7----8----4---------------------------------||----00---00---00---00-00-00------00-00-----00-00---| ** ** ** ** ** ** ** ** ** **
0:54 - 0:57|-----------------------------------------------------||-----------------------------------------------------||----------------------------[14]bend--[12]bend-------||-----------------------------------------------------||--5----7----8----4-------------------------5-4-------||----00---00---00---00-00-00------00-00---------4-3---| ** ** ** ** ** ** ** **
0:58 - 1:00|--------------||--------------||--------------||--1-4-5-1-1---||--1-4-5-1-1---||--1-4-5-1-1---|
1:01|-------------||-------------||-------------||--0-0--0-0---||--0-0--0-0---||--0-0--0-0---| * * * *
1:02 - 1:08|-------------------------------------------------||-------------------------------------------------||-------------------------------------------------||--0-0--0-0---0-00-00-00---0000000--3-1-0-4-3-1---||--0-0--0-0---0-00-00-00---0000000--3-1-0-4-3-1---||--0-0--0-0---0-00-00-00---0000000--3-1-0-4-3-1---| * * * * * ** ** ** *******
1:09 - 1:17|--------------------------------------------------------------------||--------------------------------------------------------------------||---------------------------------------------------------[12]bend---||--0-0--0-0---0-00-00-00---0000000--3-1-0-4-3-1--0-0--0-0------------||--0-0--0-0---0-00-00-00---0000000--3-1-0-4-3-1--0-0--0-0------------||--0-0--0-0---0-00-00-00---0000000--3-1-0-4-3-1--0-0--0-0------------| * * * * * ** ** ** ******* * * * *
1:18 - 1:24|-------------------------------------------------||-------------------------------------------------||-------------------------------------------------||--0-0--0-0---0-00-00-00---0000000--3-1-0-4-3-1---||--0-0--0-0---0-00-00-00---0000000--3-1-0-4-3-1---||--0-0--0-0---0-00-00-00---0000000--3-1-0-4-3-1---| * * * * * ** ** ** *******
1:25 - 1:29|------------------------------------||------------------------------------||------------------------------------||--0-0--0-0---0-00-00-00---0000000---||--0-0--0-0---0-00-00-00---0000000---||--0-0--0-0---0-00-00-00---0000000---| * * * * * ** ** ** *******
1:31 - 1:56|---------------------------------------------------------------||---------------------------------------------------------------||---------------------------------------------------------------| x6|----------4---------3-------------------12----------11---------||------6-5-------5-4-------3h5-----10-12-------9--11------------||--0-0-------0-0-------0-0-----0-0---------0-0----------10h12---| * * * * * * * * * *
1:57 - 1:58|--------||--------||--------||--0-0---||--0-0---||--0-0---| * *
1:59 - 2:07|---------------------------------------------------------------||---------------------------------------------------------------||---------------------------------------------------------------| x2|----------4---------3-------------------12----------11---------||------6-5-------5-4-------3h5-----10-12-------9--11------------||--0-0-------0-0-------0-0-----0-0---------0-0----------10h12---| * * * * * * * * * *
2:08 - 2:11|--------------------------------13-16---------------------------15-17-18--||--------------------------12-15------------------------15-17-18-----------||--------------------11-14---------------------14-16-17--------------------||--------------10-13------------------13-15-16-----------------------------||--------------------------------------------------------------------------||-00-00-00-00--------------------------------------------------------------| ** ** ** **
|--17p13p10-17p13p10-9p12p16-9p12p16-------------||------------------------------------------------||------------------------------------------------||------------------------------------------------||------------------------------------------------||------------------------------------------------|
2:12 - 2:24 (Solo)|--------------------17----------------------||-----------------18----18-------------------||--------------19----------19----------------||-----------19----------------19-------------|x2|-----17-20----------------------20-17-------||--19----------------------------------19----|
|--------------------16----------------------| |-----------------17----17-------------------||--------------18----------18----------------||-----------18----------------18-------------|x2|-----16-19----------------------19-16-------||--18----------------------------------18----|
Solo Rhythm|-------------------------------------------------||-------------------------------------------------||-------------------------------------------------||--0-------------6----------0-------------6--6\---||--0-------------6----------0-------------6--6\---||--0-------------6---/18----0-------------6--6\---|
2:25 - 2:32|---------------------------------------------------||---------------------------------------------------||---------------------------------------------------||--------------------------------------10-9---------||-----------"12(x6)-"11(x12)-----11------------11---||--"12(x32)-------------------12----12------12------| * * *
2:33 - 2:40|-------------------------------------------------------------------||-------------------------------------------------------------------||----------7---------------------[7]---------7---------7-6--10--6---||--0-3-2-0-7-0-3-2-0-8-7-0-3-2-0-----0-3-2-0-7-0-3-2-0-7-6--10--6---||--0-3-2-0---0-3-2-0-8-7-0-3-2-0-----0-3-2-0---0-3-2-0--------------||--0-3-2-0---0-3-2-0-8-7-0-3-2-0-----0-3-2-0---0-3-2-0-----0---0----| * * * * * * * * * * * * * * * * * * * *
2:41 - 2:45|--------------------------------------------------------||--------------------------------------------------------||----------7---------------------[7]---------7-----------||--0-3-2-0-7-0-3-2-0-8-7-0-3-2-0-----0-3-2-0-7-0-0-0-0---||--0-3-2-0---0-3-2-0-8-7-0-3-2-0-----0-3-2-0---0-0-0-0---||--0-3-2-0---0-3-2-0-8-7-0-3-2-0-----0-3-2-0---0-0-0-0---| * * * * * * * * * * * * * * * * * *
2:46 - 2:48|-------------------------------------------------------------------------||--------------------10h13p10h13p10h13--9h12p9h12p9h12--------------------||--11h14p11h14p11h14-----------------------------------10h13p10h13p10h13--||-------------------------------------------------------------------------||-------------------------------------------------------------------------||-------------------------------------------------------------------------|
2:49 - 2:55|---------------------------------------------------------||---------------------------------------------------------||--------------------------------------------------[12]---||--0-3-2-0---0-3-2-0-8-0-0---0-3-2-0---0-3-2-0-8-0--------||--0-3-2-0---0-3-2-0-8-0-0---0-3-2-0---0-3-2-0-8-0--------||--0-3-2-0---0-3-2-0-8-0-0---0-3-2-0---0-3-2-0-8-0--------| * * * * * * * * * * * * * * * * * * *
2:56 - 3:01|------------------------------------------------||------------------------------------------------||------------------------------------------------||--0-3-2-0---0-3-2-0-8-0-0---0-3-2-0---0-3-2-0---||--0-3-2-0---0-3-2-0-8-0-0---0-3-2-0---0-3-2-0---||--0-3-2-0---0-3-2-0-8-0-0---0-3-2-0---0-3-2-0---| * * * * * * * * * * * * * * * * * *
3:02 - 3:03|---------------------------------------------------||---------------------------------------------------||------------------------------------------8h11p8---||------------------------------7h107p7--------------||-----6--9----5h8p5--4h7p4--------------------------||--0-------0---------------0-0---------0-0----------| * * * * * *
3:04 - 3:06|-----------------------------------------||-----------------------------------------||--[7]--[6]-6-9-----------------8-10-11---||-----------------------7-9-10------------||---------------7-9-10--------------------||-----0-----------------------------------| *
3:07 - 3:14|-----------------------------------------------------------||-----------------------------------------------------------||-----------------------------------------------------------| x2|--------------------3----------------------7-----6---------||----5h8-4-----5-----------6------5h8-4-----------------8---||--0-------0-0---0-0---0-0----0-0-------0-0---0-0---0-0-----| * * * * * * * * * * * * * * *
3:15 - 3:23|----------------------------------------------------------------||----------------------------------------------------------------||----------------------------------------------------------------| x2|----------------------3-----------------------------------------||------5h8-4-----5-----------6------5h8-4-----6h9---7h10---5h8---||--0-0-------0-0---0-0---0-0----0-0-------0-0-----0------0-------| * * * * * * * * * * * * * *
3:24 - 3:33|---------------------------------------||---------------------------------------||---------------------------------------||--0-----------0------------------------||--0-----------0------------------------||--0-----------0----------3-1-0-4-3-1---|
3:34 - 3:37|--------------------------------------------------------||--------------------------------------------------------||--------------------------------------------------------||--0---------------------------------------3-1-0-4-3-1---||--0-----5h8---4-----5h8---11-----5h8------3-1-0-4-3-1---||--0-0-0-----0---0-0-----0----0-0-----0-0--3-1-0-4-3-1---| * * * * * * * * * *
3:38 - 3:57|--------------------------------------------------------------------||--------------------------------------------------------------------||-----------------------------------------8-7-5----------------------||--0--------------------------------------------8-7-5----------------||--0-----5h8---4-----5h8---11-----5h8-----------------8-7-5--6-5-3---||--0-0-0-----0---0-0-----0----0-0-----0-0----------------------------|
* * * * * * * * * * / /|---------------------------------------------------------------------- \ /|---------------------------------------------------------------------- \ /|--------------------------------------------------------| / both- \ x2|--0---------------------------------------3-1-0-4-3-1----------------- \ /|--0-----5h8---4-----5h8---11-----5h8------3-1-0-4-3-1----------------- \ /|--0-0-0-----0---0-0-----0----0-0-----0-0--3-1-0-4-3-1---| ------------ \ * * * * * * * * * *
4:00 - 4:14|---------------------------------------------------------||---------------------------------------------------------||--------------------------------------------------[12]---| x2|--0-3-2-0---0-3-2-0-8-0-0---0-3-2-0---0-3-2-0-8-0--------||--0-3-2-0---0-3-2-0-8-0-0---0-3-2-0---0-3-2-0-8-0--------||--0-3-2-0---0-3-2-0-8-0-0---0-3-2-0---0-3-2-0-8-0--------| * * * * * * * * * * * * * * * * * * *
4:15 - 4:16|------------||------------||------------||--0-3-2-0---||--0-3-2-0---||--0-3-2-0---| * * * *
2. TELL SLATER NOT TO WASH HIS DICK:
Solo Rhythm |--------------------------------------------------||--------------------------------------------------||--------------------------------------------------||------------------8---7---------------------------||-8p5----4----4----------8p5----4----4--------5h8--||-----00---00---00---0-------00---00---00-5h8------| ** ** ** * ** ** **
|-----------------------------------------------||-----------------------------------------------||-----------------------------------------------||------------------8-7-5------------------------||-5------5h8-4-----------8p5---------------5h8--||---0000-------00------------00-5h8-00-5h8------| **** ** ** **
Verse 1|-------------------------------------------------------||-------------------------------------------------------||-------------------------------------------------------| x4|------------------8-7-5-----------------------5h7------||-5------5h8-4-----------8p5---------------5h8-----5h8--||---0000-------00------------00-5h8-00-5h8--------------| **** ** ** **
Verse 2|--------------------------------------------------------------------||--------------------------------------------------------------------||--------------------------------------------------------------------||--------------------------------------8-----------------------------||-5--------8---7---------10---8------------12------------------------||---0-0000---0---0-7777-----7---7-8888---8----8-11111111-(as in 11)--| * **** * * **** * * **** * * ********
|---------------------------------------------------------------------||---------------------------------------------------------------------||---------------------------------------------------------------------||--------------------------------------8----121212121010101088887777--||-5--------8---7---------10---8---------------------------------------||---0-0000---0---0-7777-----7---7-8888---8----------------------------| * **** * * **** * * **** *
Verse 1 x2 verse 2 x2
All the muted notes are 0 they dont change when the bass line changes from 0 - 8 - 5 as it sounds, the guitars stay at 0 Verse 3|----------------------------------------------------------||----------------------------------------------------------||----------------------------------------------------------| |------------7------------------8--------------------------||---5---7------(x2)----5---7------(x2)----5---7---8--(x4)--||-0---0---0----------0---0---0----------0---0---0----------| * * * * * * * * * (these 2 sections x2)
|------------------------------------------------------------------------||------------------------------------------------------------------------||------------------------------------------------------------------------| |------------7------------------8----------------------------------------||---5---7------(x2)----5---7------(x2)------8p5---5-7-8------4-6-7-5-7-8-||-0---0---0----------0---0---0---------0000-----0-------0000-------------| * * * * * * **** * ****
Second bit of Verse 3 (x2)|--------------------------------------------------------------------------||--------------------------------------------------------------------------||--------------------------------------------------------------------------||-12---10---8---------8---7------------------------------------------------||---------------(x2)----------10----(x2)------8p5---5-7-8------4-6-7-5-7-8-||----0---0----0---------0---0----0-------0000-----0-------0000-------------| * * * * * * **** * ****
|----------17-------------------------||-------16----16------------------18--||----17----------17-----19/21-19------| |-19----------------19----------------||-------------------------------------||-------------------------------------|
|-------------------------------------||-------------------------------------||-------------------------------------| |-8-----------------5-------------10--||-8-----------------5-------------10--||-8-----------------5-------------10--|
Pre-Breakdown|-----------------------------------------------------||-----------------------------------------------------||-----------------------------------------------------||-0-----------0-3-1-0-4-0-1-3-0-0-----------54444111--||-0-----------0-3-1-0-4-0-1-3-0-0-----------54444111--||-0--00000000-0-3-1-0-4-0-1-3-0-0--00000000-54444111--| ******** * * * * * * * ********
|-----------------------------------------------------------||-----------------------------------------------------------||-----------------------------------------------------------||-0-0-----------0-3-1-0-4-0-1-3-0-0-----------011112-----0--||-0-0-----------0-3-1-0-4-0-1-3-0-0-----------011112-----0--||-0-0--00000000-0-3-1-0-4-0-1-3-0-0--00000000-011112-[3]-0--| * ******** * * * * * * * ******** *
----------|MOVE|----------
Breakdown|-------------------------------------------------------||-------------------------------------------------------||-------------------------------------------------------||-0-0-----------0-3-1-0-4-0-1-3-0-0-----------54444111--||-0-0-----------0-3-1-0-4-0-1-3-0-0-----------54444111--||-0-0--00000000-0-3-1-0-4-0-1-3-0-0--00000000-54444111--| * * ******** * * * * * * * ********
|---------------------------------------------------------||---------------------------------------------------------||---------------------------------------------------------||-0-0-----------0-3-1-0-4-0-1-3-0-0-----------011112------||-0-0-----------0-3-1-0-4-0-1-3-0-0-----------011112------||-0-0--00000000-0-3-1-0-4-0-1-3-0-0--00000000-011112-[3]--| * * ******** * * * * * * * ********
|-------------------------------------------------------||-------------------------------------------------------||-------------------------------------------------------||-0-0-----------0-3-1-0-4-0-1-3-0-0-----------54444111--||-0-0-----------0-3-1-0-4-0-1-3-0-0-----------54444111--||-0-0--00000000-0-3-1-0-4-0-1-3-0-0--00000000-54444111--| * * ******** * * * * * * * ********
Tempo slows down here|--------------------------------||--------------------------------||--------------------------------||-0-0-----------0-3-1-0-4-0-1-3--||-0-0-----------0-3-1-0-4-0-1-3--||-0-0--00000000-0-3-1-0-4-0-1-3--| * * ******** * * * * * * *
|-------------------------------------------------------||-------------------------------------------------------||-------------------------------------------------------||-0-0-----------0-3-1-0-4-0-1-3-0-0-----------54444111--||-0-0-----------0-3-1-0-4-0-1-3-0-0-----------54444111--||-0-0--00000000-0-3-1-0-4-0-1-3-0-0--00000000-54444111--| * * ******** * * * * * * * ********
|-------------------------------------------------------------||-------------------------------------------------------------||-------------------------------------------------------------||-0-0-----------0-3-1-0-4-0-1-3-0-0-----------011112-----0-0--||-0-0-----------0-3-1-0-4-0-1-3-0-0-----------011112-----0-0--||-0-0--00000000-0-3-1-0-4-0-1-3-0-0--00000000-011112-[3]-0-0--| * * ******** * * * * * * * ******** * *
Verse 4
(PICKED VERY FAST)|--------------------------1212121212121212121213131313131313131313--||-151515151515151515151515-------------------------------------------||--------------------------------------------------------------------||--------------------------------------------------------------------||--------------------------------------------------------------------||--------------------------------------------------------------------|
|--------------------------1818181818181818181817171717171717171717--||-111111111111111111111111-------------------------------------------||--------------------------------------------------------------------||--------------------------------------------------------------------||--------------------------------------------------------------------||--------------------------------------------------------------------|
|--------------------------1212121212121212121213131313131313131313--||-151515151515151515151515-------------------------------------------||--------------------------------------------------------------------||--------------------------------------------------------------------||--------------------------------------------------------------------||--------------------------------------------------------------------|
|--------------------------1818181818181818181817171717171717171717--||-111111111111111111111111-------------------------------------------||--------------------------------------------------------------------||--------------------------------------------------------------------||--------------------------------------------------------------------||--------------------------------------------------------------------|
|--------------------------1212121212121212121213131313131313131313--||-151515151515151515151515-------------------------------------------||--------------------------------------------------------------------||--------------------------------------------------------------------||--------------------------------------------------------------------||--------------------------------------------------------------------|
Rhythm backing for the top bit is|--------------||--------------||--------------| |-8----5----7--||-8----5----5--||-8----5-------|
3. FOR STEVIE WONDERS EYES ONLY (BRAILE):
--------------------------------------------------|--------------------------------------------------|--------------------------------------------------|--------------------------------------------------|-------------------------------8-8-8-8--7-7-7-7---|-7-7--8-8--4-4--5-5--7-7--8-8---------------------| * * * * * * * * * * * * * * * * * * * *
-----------------|--------------------------------|-----------------|--------------------------------|-----------------|x2]-----------------------------|-----------------|------------5-7-8---------------|-5-5--8p5--7p4---|------5-7-8---------------------|-----------------|--------------------------------| * *
--------------------------------------------------|--------------------------------------------------|---------------------------------------7-8-10-----|--------------------------5-7-8-7-8-10------------|-5-5--8p5--7p4------5-7-8-------------------------|----------------0-0-------------------------------| * * * *
-----------------|--------------------------------|-----------------|--------------------------------|-----------------|x2]-----------------------------|-----------------|------------5-7-8---------------|-5-5--8p5--7p4---|------5-7-8---------------------|-----------------|--------------------------------| * *
--------------------------------------------------|--------------------------------------------------|---------------------------------------7-8-10-----|--------------------------5-7-8-7-8-10------------|-5-5--8p5--7p4------5-7-8-------------------------|----------------0-0-------------------------------| * * * *
--------------------------------------------------|--------------------------------------------------|--------------------------------------------------|--------------------------------------------------|-5-------4-5---8---7----------4-------------------|---0-0-0-----0---0---0-0-0--0---0-0-0--0----------| * * * * * * * * * * * * *
--------------------------------------------------|--------------------------------------------------|--------------------------------------------------|--------------------------------------------------|-------------------------------8-8-8-8--7-7-7-7---|-7-7--8-8--4-4--5-5--7-7--8-8---------------------| * * * * * * * * * * * * * * * * * * * *
--------------------------------------------------|--------------------------------------------------|--------------------------------------------------|--------------------------------------------------|-5-------4-5---8---7----------4-------------------|---0-0-0-----0---0---0-0-0--0---0-0-0--0----------| * * * * * * * * * * * * *
--------------------------------------------------|--------------------------------------------------|--------------------------------------------------|--------------------------------------------------|-------------------------------8-8-8-8--7-7-7-7---|-7-7--8-8--4-4--5-5--7-7--8-8---------------------| * * * * * * * * * * * * * * * * * * * *
-------------------------------------------------------------|-------------------------------------------------------------|--------------------------------------7----------------------|-5---0------------------7---8-7------------------------------|---8----------------------8-----5-5-8------------------------|--------0--0-0-0--0-0-0-----------------0-0--0-0-0--0-0-0----| * * * * * * * * * * * * * * *
-------------------------------------------------|-------------------------------------------------|-------------7-8-7-------------------------------|-------5-7-8-------8-7-5-------------------------|-5-7-8-------------------8-5---------------------|-----------------------------0--0-0-0--0-0-0-----| * * * * * * *
--------------------------------------------------|--------------------------------------------------|---------------7----------------------------------|-7---8-7-----------------------------7-8-7-<5*>---|---8-----5-5-8---------------------5--------------|-----------------0-0--0-0-0--0-0-0----------------| * * * * * * * *
-------------------------------------------------------------|-------------------------------------------------------------|--------------------------------------7----------------------|-5---0------------------7---8-7------------------------------|---8----------------------8-----5-5-8------------------------|--------0--0-0-0--0-0-0-----------------0-0--0-0-0--0-0-0----| * * * * * * * * * * * * * * *
-------------------------------------------------|-------------------------------------------------|-------------7-8-7-------------------------------|-------5-7-8-------8-7-5-------------------------|-5-7-8-------------------8-5---------------------|-----------------------------0--0-0-0--0-0-0-----| * * * * * * *
--------------------------------------------------|--------------------------------------------------|---------------7----------------------------------|-7---8-7-----------------------------7-8-7-<5*>---|---8-----5-5-8---------------------5--------------|-----------------0-0--0-0-0--0-0-0----------------| * * * * * * * *
--------------------------------------------------|--------------------------------------------------|--------------------<7*>--------------------------|---------7-8-7-<7*>-------------------------------|-----7--------------------------------------------|-0-0---0------------------------------------------| * * *
--------------------------------------------------|--------------------------------------------------|------------------------------7-<5*>--------------|---------7-8-7-<7*>-------------------------------|-----7------------------5-4-5---------------------|\-0-0---0------------0-0---------------------------| \ * * * * * \
/--------------------------------------------------| /--------------------------------------------------|/----------------------------------------7---------|---------7-8-7-<7*>-----------------4-7-----------|-----7------------------5-4-5-4-5-7---------------|-0-0---0------------0-0---------------------------| * * * * * * * * * * *
--------------------------------------------------|--------------------------------------------------|--------------------------------------------------|-0-0--0-0--0--0-0--0-0--0-0-0-0-0-0---------------|-0-0--0-0--0--0-0--0-0--0-0-0-0-0-0---------------|-0-0--0-0--0--0-0--0-0--0-0-0-0-0-0---------------| * * * * * * * * * * * * * * *
------|--------------------------------------------|------|--------------------------------------------|-10-9-|-------10-9------14-12-10-12----------------|--x-x-|-------x--x-------x--x-x---x------------|--8-7-|-------8--7------12-10-8--10----------------|------|-0-0-0-----0-0-0----------------------------| * * * * * *
---------------------|-----------------------------|---------------------|-----------------------------|---------------------|-----------------------------|-----------------|-----------------------------|---------------------|-12-10-8-10-8-7--------------|-10-8-8-8-8-8-8------|-----------------------------|
-------------------------------------------------------------|-------------------------------------------------------------|----------------------------------10-9-7----7-9----7-9-10----|-----------------------------------------10-----10-----------|-------------------------------------------------------------|-8-7-7-7-7-7-7-7-10-7-7-7-7-7-7-7----------------------------|
--------------------------------------------|--------------------------------------------|------10--9------14-12-10-12----------------|-------x--x-------x--x--x--x------------|-------8--7------12-10--8-10----------------|-0-0-0-----0-0-0----------------------------| * * * * * *
-17-15----17--------------------------------------------------------------|-------18----18-17-18-17-15-17-15----15-----------------------------------|----------------------------------17----17-16-17-16----16-----------------|----------------------------------------------------19----19-17-19-17-16--|--------------------------------------------------------------------------|--------------------------------------------------------------------------|
-15-----------------------------------------------------------------------|----17-14-17-14----14-----------------------------------------------------|----------------15----15----15--------------------------------------------|-------------------------17----17-14-17-14----14--------------------------|-------------------------------------------16----16-13-16-13----13--------|-------------------------------------------------------------17----17-14--|
-------------------------------------------------------------|-------------------------------------------------------------|--------------------------------------7----------------------|-5---0------------------7---8-7------------------------------|---8----------------------8-----5-5-8------------------------|\--------0--0-0-0--0-0-0-----------------0-0--0-0-0--0-0-0----| \
* * * * * * * * * * * * * * * \ \-------------------------------------------------| -------------------------------------------------| /-------------7-8-7-------------------------------| _______/-------5-7-8-------8-7-5-------------------------| /-5-7-8-------------------8-5---------------------| /-----------------------------0--0-0-0--0-0-0-----| /
* * * * * * * / /--------------------------------------------------|/--------------------------------------------------|---------------7----------------------------------|-7---8-7-----------------------------7-8-7-<5*>---|---8-----5-5-8---------------------5--------------|-----------------0-0--0-0-0--0-0-0----------------| * * * * * * * *
--------------------------------------------------|--------------------------------------------------|--------------------------------------------------|------0~------------------------------------------|------0~------------------------------------------|------0~------------------------------------------|
----------------------------------------------------|----------------------------------------------------|----------------------------------------------------|\______----------------------------------------------------| \--8--5--8--5--8--5--7--| \----------------------------------------------------| \
/-----------------------------------------------------------|/-----------------------------------------------------------|-----------------------------------------------------------|-----------------------------------------------------------|-4--7--4--7--4------------------------|-------------------------------------8--5--7--|
----------------------------------------------------|----------------------------------------------------|----------------------------------------------------|\----------------------------------------------------| \ --8--5--8--5--8--5--7--| \ ----------------------------------------------------| \
----------------------------------------------------| /----------------------------------------------------| /----------------------------------------------------| /-------------------------------------8~--5~--7~-----|/-4--7--4--7--4--8~--5~--7~-----|-------------------------------------8~--5~--7~-----|
-------------------------------------------------------------------------------|-------------------------------------------------------------------------------|-------------------------------------------------------------------------------|-0-0-0-0-----------0-0-0-0---------------------0-0-0-0------------4-4-4-1-1-1--|-0-0-0-0-5h8p--0-0-0-0-5h8p--6h9p--0-0-0-0------------4-4-4-1-1-1--|-0-0-0-0-----------0-0-0-0---------------------0-0-0-0-8h11p--4-4-4-1-1-1--| * * * * * * * * * * * *
--------------------------------------------------|--------------------------------------------------|------------------------------7-<5*>--------------|---------7-8-7-<7*>-------------------------------|-----7------------------5-4-5---------------------|\-0-0---0------------0-0---------------------------| \ * * * * * \
/--------------------------------------------------| /--------------------------------------------------|/----------------------------------------7---------|---------7-8-7-<7*>-----------------4-7-----------|-----7------------------5-4-5-4-5-7---------------|-0-0---0------------0-0---------------------------| * * * * * * * * * * *
4. A LOT LIKE VEGAS:
Intro Riff---------------------------------------------------------------------------|---------------------------------------------------------------------------|---------------------------------------------------------------------------|---------------------------------------------------------------------------|-8p5---4h7---8p5---4h7-000-000---------------------------------------------|-----0-----0-----0-----000-000---------------------------------------------|
. . . ... ...-------------------------------|--------------------|-------------------------------------------------------|--------------------|-------------------------------------------------------|-33333333-7777-6666-|-33333333-10101010-9999--------------------------------|-xxxxxxxx-xxxx-xxxx-|-xxxxxxxx-x-x-x-x--xxxx--8p5---4h7---8p5---4h7-000-000-|-11111111-5555-4444-|-11111111-8-8-8-8--7777------0-----0-----0-----000-000-|--------------------|------------------------ . . . ... ... 1st part 2nd part
"We'll take this feeling to our graves!"---------------------------------------------------------------------------|---------------------------------------------------------------------------|---------------------------------------------------------------------------|-0--10--7--1010--101010-10-1212-121212-12----------------------------------|-0--8---5--8-8---8-8-8--8--1010-101010-10----------------------------------|-0--8---5--8-8---8-8-8--8--1010-101010-10----------------------------------|let these chords ring. [guitar 1]
---------------------------------------------------------------------------|---------------------------------------------------------------------------|-10---------77-777-7-1010-10-99-9------------------------------------------|-x---10--7--xx-xxx-x-x-x--x--xx-x------------------------------------------|-8---8---5--55-555-5-8-8--8--77-7------------------------------------------|-----8---5-----------------------------------------------------------------|[guitar 2]
"The only place I'll call home is my deathbed."-------------------------------|------------------------|---------------------------------------------------|------------------------|---------------------------------------------------|-------7h10--------8h11-|---------10h13-------------------------------------|----6h9--------7h10-----|-----9h12------10h13-8p5---4h7---8p5---4h7-000-000-|-5h8--------6h9---------|-8h11---------9h12-------0-----0-----0-----000-000-|------------------------|-------------------- . . . ... ... [guitar 1] [guitar 2]
Breakdown [you can figure the chugging before. its all an open chord]-----------------------------------|---------------|-------------------||---------------------------------------|---------------|-------------------||---------------------------------------|---------------|-------------------||-118-000-0-0-000-0-0-00000000---0-0-0--|----6-9---7-10-|-----9-12----10-13-||-x-x-000-0-0-000-0-0-00000000---0-0-0--|-5-8---6-9-----|-8-11----9-12------||-9-6-000-0-0-000-0-0-00000000---0-0-0--|---------------|-------------------||---- [everything is palm muted here.] [guitar 1] [guitar 2]
Solo-----12h13p12----12h13p12---------------------------12h13h12---12h13h12-17----15-----------13--------------------------------------------15--------------------14-12-12-12h14h12-12-12h14p12-------------------------12-12h13h12------|--------------------------15-12---15-12----15-12--15-12-15------------15-12-|----------------------------------------------------------------------------------------------------------------------------------------------------------
Rhythm to solo---------------------------------------------------------------------------|---------------------------------------------------------------------------|---------------------------------------------------------------------------|-0----------------8-------5------------------------------------------------|-0-------5-8-7p5--8-------5---8p7-5----------------------------------------|-0-000000-0-0---0-8-88888-5-55---5-----------------------------------------| ...... . . . ..... .. .
"I know we're so wrong, but it feels so right."-----------------------|----------------|-----------------------------------------------------------|----------------|-10h11p10--10-----10h11p10--10----13-777-999-101010-121212-|----------------|---------12--12-10--------12--12-10--xxx-xxx-x-x-x--x-x-x--|-8---8p7--5-----|-------------------------------------555-777-8-8-8--101010-|-8--------5-----|-----------------------------------------------------------|-8-88---8-5-55--|------------------------------------ .. . ..
"I'm running on empty, you're running out of luck." guitar 2 harmonizes with:---------------------------------------------------------------------------|-------------------------------13h15p13--13-----13h15p13--13-----17--------|-101010-121212-141414-151515-----------15--15-14--------15--15-14----------|-x-x-x--x-x-x--x-x-x--x-x-x------------------------------------------------|-8-8-8--101010-121212-131313-----------------------------------------------|---------------------------------------------------------------------------|
End this part with:------------------------------------------------------------------------------10h11p10--10------10h11p10--10-----13--13h15h13--13------13h15h13--13-----17---------12--12-10---------12--12-10------------15--15-14---------15--15-14-----------------------------------------------------------------------------------------------------------------------------------------------------------------------------------------------------------------------------------------[guitar 1]
------------------------------------------------------------------------------13h15h13--13------13h15h13--13-----17--17h18p17--17------17h18p17--17-----20---------15--15-14---------15--15-14------------19--19-17---------19--19-17-----------------------------------------------------------------------------------------------------------------------------------------------------------------------------------------------------------------------------------------[guitar 2]
5. BLACK AND BLUE:
Guitar 1 E E E E E E E E E E E E E E E E C#||--------------------------|--------------------------|G#||--------------------------|--------------------------|E ||--------------------------|--------------------------|B ||--------------------------|--------------------------|F#||--------5-----6-----3--5--|--------------------------|B ||--0--0-----0-----0--------|--0--0--0--0--0--0--0--0--|
|---3--| |--3--|
E E E E E E E E E E E E E E E E E E --------------------------|---------------------------------|--------------------------|---------------------------------|--------------------------|--------7--10--7--------6--9--6--|--------------------------|---------------------------------|--------5-----6-----3--5--|---------------------------------|--0--0-----0-----0--------|--0--0------------0--0-----------|
E E E E E E E E E E E E E E E E --------------------------|--------------------------|--------------------------|--------------------------|--------------------------|--------------------------|--------------------------|--------------------------|--------5-----6-----3--5--|--------------------------|--0--0-----0-----0--------|--0--0--0--0--0--0--0--0--|
|---3--| |--3--|
E E E E E E E E E E E E E E E E E E --------------------------|---------------------------------|--------------------------|---------------------------------|--------------------------|--------7--10--7--------6--9--6--|--------------------------|---------------------------------|--------5-----6-----3--5--|---------------------------------|--0--0-----0-----0--------|--0--0------------0--0-----------|
E E E E E E E E E E E E E E E E ------------------------12--15--|--------------------------|----------------11--14----------|--------------------------|---------9--12------------------|--------------------------|--8--11-------------------------|--------------------------|--------------------------------|--------5-----6-----3--5--|--------------------------------|--0--0-----0-----0--------|
E E E E E E E E E E E E E E E E --------------------------|--------------------------|--------------------------|--------------------------|--------------------------|--------------------------|--------------------------|--------------------------|--------------------------|--------5-----6-----3--5--|--0--0--0--0--0--0--0--0--|--0--0-----0-----0--------|
|---3--| |--3--|
E E E E E E E E E E E E E E E E E E ---------------------------------|--------------------------|---------------------------------|--------------------------|--------7--10--7--------6--9--6--|--------------------------|---------------------------------|--------------------------|---------------------------------|--------5-----6-----3--5--|--0--0------------0--0-----------|--0--0-----0-----0--------|
E E E E E E E E E E E E E E E E --------------------------|--------------------------|--------------------------|--------------------------|--------------------------|--------------------------|--------------------------|--------------------------|--------------------------|--------5-----6-----3--5--|--0--0--0--0--0--0--0--0--|--0--0-----0-----0--------|
|---3--| |--3--|
E E E E E E E E E E E E E E E E E E ---------------------------------|--------------------------|---------------------------------|--------------------------|--------7--10--7--------6--9--6--|--------------------------|---------------------------------|--------------------------|---------------------------------|--------5-----6-----3--5--|--0--0------------0--0-----------|--0--0-----0-----0--------|
E E E E E E E E E E E E E E E E --------------------------|--------------------------|--------------------------|--------------------------|--------------------------|--------------------------|--------------------------|--------------------------|--------------------------|--------5-----6-----3--5--|--0--0--0--0--0--0--0--0--|--0--0-----0-----0--------|
|---3--| |--3--|
E E E E E E E E E E E E E E E E E E ---------------------------------|--------------------------|---------------------------------|--------------------------|--------7--10--7--------6--9--6--|--------------------------|---------------------------------|--------------------------|---------------------------------|--------5-----6-----3--5--|--0--0------------0--0-----------|--0--0-----0-----0--------|
E E E E E E E E E E E E E E E E --------------------------|--------------------------|--------------------------|--------------------------|--------------------------|--------------------------|--------------------------|--------------------------|--------------------------|--------5-----6-----3--5--|--0--0--0--0--0--0--0--0--|--0--0-----0-----0--------|
|---3--| |--3--|
E E E E E E E E E E E E E E E E E E ---------------------------------|------------------------12--15--|---------------------------------|----------------11--14----------|--------7--10--7--------6--9--6--|---------9--12------------------|---------------------------------|--8--11-------------------------|---------------------------------|--------------------------------|--0--0------------0--0-----------|--------------------------------|
E E E E E E E E E E E E E E E E --------------------------|--------------------------|--------------------------|--------------------------|--------------------------|--------------------------|--------------------------|--------------------------|--------5--8--------5--8--|--------5--8--------5--8--|--0--0--------0--0--------|--0--0--------0--0--------|
E E E E E E E E E E E E E E E E ----------------------------|--------------------------|----------------------------|--------------------------|----------------------------|--------------------------|----------------------------|--------------------------|--------7--10--------7--10--|--------4--7--------4--7--|--0--0---------0--0---------|--0--0--------0--0--------|
E E E E E E E E E E E E E E E E --------------------------|--------------------------|--------------------------|--------------------------|--------------------------|--------------------------|--------------------------|--------------------------|--------5--8--------5--8--|--------5--8--------5--8--|--0--0--------0--0--------|--0--0--------0--0--------|
E E E E E E E E E E E E E E E E ----------------------------|--------------------------|----------------------------|--------------------------|----------------------------|--------------------------|----------------------------|--------------------------|--------7--10--------7--10--|--------4--7--------4--7--|--0--0---------0--0---------|--0--0--------0--0--------|
E E E E E E E E E E E E E E E E --------------------------|--------------------------|--------------------------|--------------------------|--------------------------|--------------------------|--------------------------|--------------------------|--------5--8--------5--8--|--------5--8--------5--8--|--0--0--------0--0--------|--0--0--------0--0--------|
E E E E E E E E E E E E E E E E ----------------------------|--------------------------|----------------------------|--------------------------|----------------------------|--------------------------|----------------------------|--------------------------|--------7--10--------7--10--|--------4--7--------4--7--|--0--0---------0--0---------|--0--0--------0--0--------|
E E E E E E E E E E E E E E E E --------------------------|--------------------------|--------------------------|--------------------------|--------------------------|--------------------------|--------------------------|--------------------------|--------5--8--------5--8--|--------5--8--------5--8--|--0--0--------0--0--------|--0--0--------0--0--------|
E E E E E E E E E E E E E E E E ----------------------------|--------------------------|----------------------------|--------------------------|----------------------------|--------------------------|----------------------------|--------------------------|--------7--10--------7--10--|--------4--7--------4--7--|--0--0---------0--0---------|--0--0--------0--0--------|
S S S S S S S S S S S S S S S S S S S S S S S S S S S S S S S S ----------------------------------|----------------------------------|----------------------------------|----------------------------------|----------------------------------|----------------------------------|--------------------------8-8-8-8-|--7-7-7-7-5-5-5-5-----------------|----------5-5-5-5-8-8-8-8---------|------------------8-8-8-8-7-7-7-7-|--0-0-0-0-------------------------|----------------------------------|
|--3--| |--3--| |--3--| |--3--|
S S S S E E E S S S S E E E S S S S E E E S S S S E E E ------------------------------------|------------------------------------|------------------------------------|------------------------------------|------------------------------------|------------------------------------|------------------------------------|------------------------------------|----------5--7--5----------5--7--5--|----------5--8--5----------4--7--4--|--8-8-8-8----------8-8-8-8----------|--5-5-5-5----------7-7-7-7----------|
S S S S S S S S S S S S S S S S S S S S S S S S S S S S S S S S ----------------------------------|----------------------------------|----------------------------------|----------------------------------|----------------------------------|----------------------------------|--------------------------8-8-8-8-|--7-7-7-7-5-5-5-5-----------------|----------5-5-5-5-8-8-8-8---------|------------------8-8-8-8-7-7-7-7-|--0-0-0-0-------------------------|----------------------------------|
|--3--| |--3--| |--3--| |--3--|
S S S S E E E S S S S E E E S S S S E E E S S S S E E E ------------------------------------|------------------------------------|------------------------------------|------------------------------------|------------------------------------|------------------------------------|------------------------------------|------------------------------------|----------5--7--5----------5--7--5--|----------5--8--5----------4--7--4--|--8-8-8-8----------8-8-8-8----------|--5-5-5-5----------7-7-7-7----------|
S S S S S S S S S S S S S S S S S S S S S S S S S S S S S S S S ----------------------------------|----------------------------------|----------------------------------|----------------------------------|----------------------------------|----------------------------------|--------------------------8-8-8-8-|--7-7-7-7-5-5-5-5-----------------|----------5-5-5-5-8-8-8-8---------|------------------8-8-8-8-7-7-7-7-|--0-0-0-0-------------------------|----------------------------------|
S S S S S S S S S S S S S S S S S S S S S S S S S S S S S S S S ----------------------------------|----------------------------------|----------------------------------|----------------------------------|----------------------------------|----------------------------------|----------------------------------|----------------------------------|----------5-5-5-5-7-7-7-7-8-8-8-8-|----------5-5-5-5---------4-4-4-4-|--8-8-8-8-------------------------|--5-5-5-5---------7-7-7-7---------|
S S S S S S S S S S S S S S S S S S S S S S S S S S S S S S S S ----------------------------------|----------------------------------|----------------------------------|----------------------------------|----------------------------------|----------------------------------|--------------------------8-8-8-8-|--7-7-7-7-5-5-5-5-----------------|----------5-5-5-5-8-8-8-8---------|------------------8-8-8-8-7-7-7-7-|--0-0-0-0-------------------------|----------------------------------|
S S S S S S S S S S S S S S S S S S S S S S S S S S S S S S S S ----------------------------------|----------------------------------|----------------------------------|----------------------------------|----------------------------------|----------------------------------|----------------------------------|----------------------------------|----------5-5-5-5-7-7-7-7-8-8-8-8-|----------5-5-5-5---------4-4-4-4-|--8-8-8-8-------------------------|--5-5-5-5---------7-7-7-7---------|
S S E S S E S S E E E W S S E S S E S S E E E -----------------------------|-------------------|--------------------------------------------------------|-------------------|--------------------------------------------------------|-------------------|--------------------------------------------------------|-------------------|-----------------------------0-0-0--0-0-0--0-0-0--L--L--|--L----------------|--0-0-0--0-0-0--0-0-0--L--L--0-0-0--0-0-0--0-0-0--L--L--|--L----------------|--0-0-0--0-0-0--0-0-0--L--L
W S S E S S E S S E E E W -------------------|-----------------------------|-------------------|-------------------|-----------------------------|-------------------|-------------------|-----------------------------|-------------------|-------------------|-----------------------------|-------------------|--L----------------|--0-0-0--0-0-0--0-0-0--L--L--|--L----------------|--L----------------|--0-0-0--0-0-0--0-0-0--L--L--|--L----------------|
S S E S S E S S E E E W S S E S S E S S E E E -----------------------------|-------------------|--------------------------------------------------------|-------------------|--------------------------------------------------------|-------------------|--------------------------------------------------------|-------------------|-----------------------------0-0-0--0-0-0--0-0-0--L--L--|--L----------------|--0-0-0--0-0-0--0-0-0--------0-0-0--0-0-0--0-0-0--L--L--|--L----------------|--0-0-0--0-0-0--0-0-0------
E S S E S S E S S E E S S E S S E S S E E E -----------------------------|-----------------------------|-----------------------------|-----------------------------|-----------------------------|-----------------------------|-----------------------------|-----------------------------|-----0-0-0--0-0-0--0-0-0-----|--0-0-0--0-0-0--0-0-0--------|-----0-0-0--0-0-0--0-0-0-----|--0-0-0--0-0-0--0-0-0--------|
S S S S S S S S E E E E S S E S S E S S E E E ---------------------------------|-----------------------------|---------------------------------|-----------------------------|---------------------------------|-----------------------------|---------------------------------|-----------------------------|------------------------<>3~--L--|--0-0-0--0-0-0--0-0-0--------|--0-0-0-0-0-0-0-0-3--0-----------|--0-0-0--0-0-0--0-0-0--------|
E S S E S S E S S E E S S E S S E S S E E E -----------------------------|-----------------------------|-----------------------------|-----------------------------|-----------------------------|-----------------------------|-----------------------------|-----------------------------|-----0-0-0--0-0-0--0-0-0-----|--0-0-0--0-0-0--0-0-0--------|-----0-0-0--0-0-0--0-0-0-----|--0-0-0--0-0-0--0-0-0--------|
E E E E E E E E S S E S S E S S E E E -------------------------------------|-----------------------------|-------------------------------------|-----------------------------|--9s--10--10s--12--12s--14--14s--15--|-----------------------------|-------------------------------------|-----------------------------|--7s---8---8s--10--10s--12--12s--13--|--0-0-0--0-0-0--0-0-0--L--L--|-------------------------------------|--0-0-0--0-0-0--0-0-0--L--L--|
E E E E E E E E S S E S S E S S E E E -------------------------------------|--------------------------------|-------------------------------------|--------------------------------|--9s--10--10s--12--12s--14--14s--15--|--------------------------------|-------------------------------------|--------------------------------|--7s---8---8s--10--10s--12--12s--13--|--0-0-0--<>3~-L-L--0------------|-------------------------------------|--0-0-0------------0------------|
W S S E S S E S S E E E -------------------|-----------------------------|-------------------|-----------------------------|-------------------|-----------------------------|-------------------|-----------------------------|-------------------|--0-0-0--0-0-0--0-0-0--L--L--|-------------------|--0-0-0--0-0-0--0-0-0--L--L--|
E E E E E E E E S S E S S E S S E E E -------------------------------------|--------------------------------|-------------------------------------|--------------------------------|--9s--10--10s--12--12s--14--14s--15--|--------------------------------|-------------------------------------|--------------------------------|--7s---8---8s--10--10s--12--12s--13--|--0-0-0--<>3~-L-L--0------------|-------------------------------------|--0-0-0------------0------------|
PM PM W PM PM W S S E E E E E E E S S E E E E E E E -----------------------------|-----------------------------|-----------------------------|-----------------------------|-----------------------------|-----------------------------|---------------3--------<>3--|---------------3--------<>3--|--0-0-3--2--0--1--0--3-------|--0-0-3--2--0--1--0--3-------|--0-0-3--2--0-----0--3-------|--0-0-3--2--0-----0--3-------|
PM PM W S S E E E E E E E S S S S S S S S S S S S S S S S -----------------------------|----------------------------------|-----------------------------|----------------------------------|-----------------------------|----------------------------------|---------------3--------<>3--|----------------------------------|--0-0-3--2--0--1--0--3-------|--5-5-5-5-4-4-4-4-8-8-8-8-7-7-7-7-|--0-0-3--2--0-----0--3-------|----------------------------------|
PM PM W PM PM W S S E E E E E E E S S E E E E E E E -----------------------------|-----------------------------|-----------------------------|-----------------------------|-----------------------------|-----------------------------|---------------3--------<>3--|---------------3--------<>3--|--0-0-3--2--0--1--0--3-------|--0-0-3--2--0--1--0--3-------|--0-0-3--2--0-----0--3-------|--0-0-3--2--0-----0--3-------|
PM PM W S S E E E E E E E S S S S S S S S S S S S S S S S ---------
Tap to rate this tab
 
# A B C D E F G H I J K L M N O P Q R S T U V W X Y Z