Bring Me The Horizon - I Used To Make Out With Medusa tab version 3

I made sure that this is at least 99% correct so you don't have to worry about this being wrong.

Enjoy!

Song: (I Used To Make Out With) Medusa
Artist: Bring Me The Horizon
Album: Count Your Blessings


|-------------------------------------------------------------------||-------------------------------------------------------------------||-------------------------------------------------------------------|----||------------7--5---------------------------------------7--5--------| ||------------------8--7-------4--5-------8--7-----------------8--7--| ||--000--000--------------000--------000--------000-000--------------| | ... ... ... ... ... ... |
|
|----------------------------| ||----------------------------| ||----------------------------| ||----------------------------| ||--------5--7---------7--10--| ||--5--8--------7--10---------| |
|
|-- x3|-------------------------------------------------------------------| ||-------------------------------------------------------------------| ||-------------------------------------------------------------------| ||------------7--5---------------------------------------7--5--------| ||------------------8--7-------4--5-------8--7-----------------8--7--| ||--000--000--------------000--------000--------000-000--------------| | ... ... ... ... ... ... |
|
|--------------------------| ||--------------------------| ||--------------------------| ||-----------7--------7--8--|---------------------------------------------||--5--7--8-----7--8--------||--------------------------|
|-----------------------------------------------------------------------||-----------------------------------------------------------------------||--------------------------------------------------------5-8------8-11--||----------------------------------------------------4-7-----7-10-------| x2|-------6-3-5----------------------------6-3-5--------------------------||--000--------0-0-0-000-0-0-000-0-0-000--------0-0-0--------------------| ... . . . ... . . ... . . ... . . .
|--------------------------------------------------------------------------15\--||--------------------------------------------------------------------11-14------||----------------------------12-11-------------12-11------------9-12------------||----------13-10-12----------------13----------------13-10-8-11-----------------| x2|-------------------------------------------------------------------------------||--000-000-----------000-000-----------000-000----------------------------------| ... ... ... ... ... ...
|---------------------------------------------------------------------||---------------------------------------------------------------------||-----------------------------------------------------6*\--------6*\--||---------------------------------------------------------------------||----------6-5-------5-6-----3-5---------6-5--------------------------||--000-000------0--0-----000-----000-000------555-333----555-333------| ... ... . . ... ... ... ... ... ... ...
|---------------------------------------------------------------------||---------------------------------------------------------------------||-----------------------------------------------------6*\--------6*\--||---------------------------------------------------------------------||----------6-5-------5-6-----3-5---------6-5--------------------------||--000-000------0--0-----000-----000-000------555-333----555-222------| ... ... . . ... ... ... ... ... ... ...
|----------------------------------------------------------------------||----------------------------------------------------------------------||----------6*\--------6*\--------6*\--------6*\--------6*\--------6*\--||----------------------------------------------------------------------||----------------------------------------------------------------------||--555-222----555-222----333-111----333-111----333-111----333-111------| ... ... ... ... ... ... ... ... ... ... ... ...
|---------------------------------||---------------------------------||---------------------------------||---------------------------------||--0---4---3---1---0-0-0----------||--0---4---3---1---0-0-0----------| . . . . . . .
|-----------------------------------------------------------------||-----------------------------------------------------------------||-----------------------------------------------------------------|-------||-----------------------------------------------------------------| ||--0---4---3---1---0-0-0---------------------------8*--0---0------| ||--0---4---3---1---0-0-0-------------------------------0---0------| | . . . . . . . . . |
|
|-----------------------------------------------------------------| ||-----------------------------------------------------------------| ||-----------------------------------------------------------------| ||-----------------------------------------------------------------| ||--0---4---3---1---0-0-0---------------------------0-0-0---0-0-0--| ||--0---4---3---1---0-0-0---------------------------0-0-0---0-0-0--| |
. . . . . . . . . . . . . | |-- x2|-----------------------------------------------------------------| ||-----------------------------------------------------------------| ||-----------------------------------------------------------------| ||-----------------------------------------------------------------| ||--0---4---3---1---0-0-0---------------------------8*--0---0------| ||--0---4---3---1---0-0-0-------------------------------0---0------| | . . . . . . . . . |
|
|-----------------------------------------------------------------------| ||-----------------------------------------------------------------------| ||----------------------------------6h10p6h10p6h10p6h10-5h9p5h9p5h9p5h9--| ||-----------------------------------------------------------------------|-||--0---4---3---1---0-0-0------------------------------------------------||--0---4---3---1---0-0-0------------------------------------------------| . . . . . . .
|-----------------------------------------------------------------||-----------------------------------------------------------------||-----------------------------------------------------------------||-----------------------------------------------------------------| x4|--0---4---3---1---0-0-0---------------------------8*--0---0------||--0---4---3---1---0-0-0-------------------------------0---0------| . . . . . . . . .
|-------------------------------------------------------------------------------||-------------------------------------------------------------------------------||--7~-------------7-/-8--5~-----------------7~-------------12-\-11--5~----------||-------------------------------------------------------------------------------||--5~-------------5-/-6--3~-----------------5~-------------10-\-9---3~----------||---------------------------------------------------------------------------8*--|
|-----------------------------------------------------------------||-----------------------------------------------------------------||-----------------------------------------------------------------||-----------------------------------------------------------------||--0---4---3---1---0-0-0---------------------------8*--0---0------||--0---4---3---1---0-0-0-------------------------------0---0------| . . . . . . . . .
|-----------------------------------------------------------------||-----------------------------------------------------------------||-----------------------------------------------------------------||-----------------------------------------------------------------||--0---4---3---1---0-0-0---------------------------0-0-0---0-0-0--||--0---4---3---1---0-0-0---------------------------0-0-0---0-0-0--| . . . . . . . . . . . . .
|-----------------------------------------------------------------||-----------------------------------------------------------------||-----------------------------------------------------------------||-----------------------------------------------------------------||--0---4---3---1---0-0-0---------------------------8*--0---0------||--0---4---3---1---0-0-0-------------------------------0---0------| . . . . . . . . .
|-----------------------------------------------------------------------||-----------------------------------------------------------------------||----------------------------------6h10p6h10p6h10p6h10-5h9p5h9p5h9p5h9--||-----------------------------------------------------------------------||--0---4---3---1---0-0-0------------------------------------------------||--0---4---3---1---0-0-0------------------------------------------------| . . . . . . .
|-17-13--------------17-13--------------17-13---------------||-------15-----------------15-----------------15------------||----------14-----------------14-----------------14---------||-----------------------------------------------------------||----------------------------------------------------10~----||----------------------------------------------------10~----|
|-------------------------------------------------------------------||-------------------------------------------------------------------||-------------------------------------------------------------------||------------7--5---------------------------------------7--5--------||------------------8--7-------4--5-------8--7-----------------8--7--||--000--000--------------000--------000--------000-000--------------| ... ... ... ... ... ...
|----------------------------||----------------------------||----------------------------||----------------------------||--------5--7---------7--10--||--5--8--------7--10---------|
|-------------------------------------------------------------------||-------------------------------------------------------------------||-------------------------------------------------------------------||------------7--5---------------------------------------7--5--------||------------------8--7-------4--5-------8--7-----------------8--7--||--000--000--------------000--------000--------000-000--------------| ... ... ... ... ... ...
|--------------------------||--------------------------||--------------------------||-----------7--------7--8--||--5--7--8-----7--8--------||--------------------------|
|---------------------------------------------------------------||---------------------------------------------------------------||---------------------------------------------------------------||----------------------------------------------7h8p7------------| x2|------------------8tr-7tr-------------------------------5h7h8--||--000-777-888-444---------000-777-888-444-555-------888--------| ... ... ... ... ... ... ... ... ... ...
|-------------------------------------------||------17-17b^r17p15-----18-17----20--------||--------------------17--------17----17-----||---------------------------------------17--||--0~---------------------------------------||--0~---------------------------------------|
|------------------------------------------------------------------------------------||--18-17-15-17-15-14-15-14----14-----------------------------------------------------||--------------------------15----15-14-15-14-12-14-12----12--------------------------||-----------------------------------------------------15----15-14-15-14-12-14-12-11--||------------------------------------------------------------------------------------||------------------------------------------------------------------------------------|
|-------------------------------------------------||-------------------------------------------------||-------------------------------------------------||--12-11----11------------------------------------||--------13----13-12-13-12-10-12-10-8-10-8-7-5----||-------------------------------------------------|
|--17p13p10-17p13p10-17p13p10-17p13p10-18p13p10-18p13p10-17p13p10-17p13p10--||---------------------------------------------------------------------------||---------------------------------------------------------------------------|--||---------------------------------------------------------------------------| ||---------------------------------------------------------------------------| ||---------------------------------------------------------------------------| |
|
|-- x2|--17p12p9-17p12p9-17p12p9-17p12p9-18p12p9-18p12p9-17p12p9-17p12p9--| ||-------------------------------------------------------------------| ||-------------------------------------------------------------------| ||-------------------------------------------------------------------|----------||-------------------------------------------------------------------||-------------------------------------------------------------------|
|-9/10~---10-10-10-12--13--15--13--12-12h13p12-------17--15------15----------||----------------------------------------------14------------18------18--17--||----------------------------------------------------------------------------||----------------------------------------------------------------------------||----------------------------------------------------------------------------||----------------------------------------------------------------------------|
|--------13-17-13----------13-18-15----------13-20-18-17-18-17-15-17-15-13--||-----15----------15----15----------15----15--------------------------------||--14----------------14----------------14-----------------------------------||---------------------------------------------------------------------------| x2|---------------------------------------------------------------------------||---------------------------------------------------------------------------|
|---------------||--14b^15~------||---------------||---------------||---------------||---------------|
|-------------------||-------------------||-------------------||-------------------||--000-000-000-000--||--000-000-000-000--| ... ... ... ...
|--------------------------------------------------------------------||--------------------------------------------------------------------||--------------------------------------------------------------------||--------------------------------------------------------------------||--000-000-00000000000-000-00000000000-000-00000000000-000-00000000--||--000-000-00000000000-000-00000000000-000-00000000000-000-00000000--| ... ... ........... ... ........... ... ........... ... ........
|-------------------------------------------------------||------------------------------------------------14-17--||------14-10----------------------12-15----12-15--------||------------12----------------14-------14--------------||--000----------12---000-12-16--------------------------||--000---------------000--------------------------------| ... ...
|------------------------17-13----------------------13-17-13--------||------------------------------15----------------15----------15-----||------14-10----------------------14----------14----------------14--||------------12----------------------15-12-15-----------------------||--000----------12---000--------------------------------------------||--000---------------000--------------------------------------------| ... ...
|------17-13--------------------------------------------||------------15----------------------------------14-17--||---------------14----------------12-15----12-15--------||------------------------------14-------14--------------||--000---------------000-12-16--------------------------||--000---------------000--------------------------------| ... ...
|------17-13-------------------13-17-13----------13-18-13--------||------------15-------------15----------15----15----------15-----||---------------14-------14----------------14----------------15--||----------------------------------------------------------------||--000---------------000-----------------------------------------||--000---------------000-----------------------------------------| ... ...
|------17-13--------------------------------------------||------------15----------------------------------14-17--||---------------14----------------12-15----12-15--------||------------------------------14-------14--------------||--000---------------000-12-16--------------------------||--000---------------000--------------------------------| ... ...
|------17-13-------------------13-17-13----------13-18-13--------||------------15-------------15----------15----15----------15-----||---------------14-------14----------------14----------------15--||----------------------------------------------------------------||--000---------------000-----------------------------------------||--000---------------000-----------------------------------------| ... ...
|----------------------------------------------||----------------------------------------------||----------------------------------------------||----------------------------------------------||--0~---000-000-000-5--7--8-4--5--7-0~---------||--0~---000-000-000-5--7--8-4--5--7-0~---------| ... ... ... . . . . . .
|-----------------||-----------------||--7~-------------||-----------------||--5~-------------||-----------------|
|---------------------------------------------------------------------------------||---------------------------------------------------------------------------------||---------------------------------------------------------------------------------||---------------------------------------------------------------------------------| x4|--------5---------4---------8---------7---------7---------5---------8---------4--||--0-0-0-----0-0-0-----0-0-0-----0-0-0-----8-8-8-----8-8-8-----5-5-5-----5-5-5----| . . . . . . . . . . . . . . . . . . . . . . . .
|---------------------------------------------------||---------------------------------------------------||---------------------------------------------------||---------------------------------------------------||--00000-00000-00000-00000-00000-00000-00000-00000--||--00000-00000-00000-00000-00000-00000-00000-00000--| ..... ..... ..... ..... ..... ..... ..... .....
|----------------------------------------------||----------------------------------------------||----------------------------------------------||----------------------------------------5*----||--00000-00000-00000-00000-00000-00000-0---4*--||--00000-00000-00000-00000-00000-00000-0-------| ..... ..... ..... ..... ..... ..... .
|--------------------------------------------------------------||--------------------------------------------------------------||--------------------------------------------------------------||------------------------------------------------------5*------||--0tr-1tr-0tr-3tr-0tr-1tr-4tr-3tr-0tr-1tr-3tr-2tr-0-------4*--||--0tr-1tr-0tr-3tr-0tr-1tr-4tr-3tr-0tr-1tr-3tr-2tr-0-----------| .
|--------------------------------------------------------------||--------------------------------------------------------------||--------------------------------------------------------------||------------------------------------------------------5*------||--0---1---0---5*--0---1---4---3---0---1---3---2---0-------4*--||--0---1---0-------0---1---4---3---0---1---3---2---0-----------| . . . . . . . .
|--------------------------------------------------------------||--------------------------------------------------------------||--------------------------------------------------------------||--------------------------------------------------------------||--0---1---0---5*--0---1---4---3---0---1---3---2---4---3---1---||--0---1---0-------0---1---4---3---0---1---3---2---4---3---1---| . . . . . . .
|-------------------------------------------------------------------------------||-------------------------------------------------------------------------------||-------------------------------------------------------------------------------||------------------------------------------------------5*----------5*~----------||--0---1---0---5*--0---1---4---3---0---1---3---2---0-------4*--0-------4*~------||--0---1---0-------0---1---4---3---0---1---3---2---0-----------0----------------| . . . . . . . . .
|--------------------------------------------------------------||--------------------------------------------------------------||----------------------------------------------------------7*--||--------------------------------------------------------------||--0-0-0---1-1-1---4-4-4---3-3-3---0-0-0---1-1-1---4-4-4-------||--0-0-0---1-1-1---4-4-4---3-3-3---0-0-0---1-1-1---4-4-4-------| . . . . . . . . . . . . . . . . . . . . .
|--------------------------------------------------------------------------------||----------------------------------10p6h10p6h10p6h10p6h10p6-9p5h9p5h9p5h9p5h9p5--||--------------------------------------------------------------------------------||--------------------------------------------------------------------------------||--0-0-0---1-1-1---4-4-4---3-3-3-------------------------------------------------||--0-0-0---1-1-1---4-4-4---3-3-3-------------------------------------------------| . . . . . . . . . . . .
|--------------------------------------------------------------||--------------------------------------------------------------||----------------------------------------------------------7*--||--------------------------------------------------------------||--0-0-0---1-1-1---4-4-4---3-3-3---0-0-0---1-1-1---4-4-4-------||--0-0-0---1-1-1---4-4-4---3-3-3---0-0-0---1-1-1---4-4-4-------| . . . . . . . . . . . . . . . . . . . . .
|--------------------------------------------------------------------------------||----------------------------------10p6h10p6h10p6h10p6h10p6-9p5h9p5h9p5h9p5h9p5--||--------------------------------------------------------------------------------||--------------------------------------------------------------------------------||--0-0-0---1-1-1---4-4-4---3-3-3-------------------------------------------------||--0-0-0---1-1-1---4-4-4---3-3-3-------------------------------------------------| . . . . . . . . . . . .
|-----------------------------------||-----------------------------------||-----------------------------------||------------7--5-------------------||------------------8--7--000000000--||--000--000--------------000000000--| ... ... .........
Tap to rate this tab
 
# A B C D E F G H I J K L M N O P Q R S T U V W X Y Z