Bring Me The Horizon - Rawwwrr tab

----------------------------------------------------------------------------
 RAWWWRR! - Bring Me the Horizon 
----------------------------------------------------------------------------

Tabbed by iamonlyahobo
Send any questions, comments or corrections to iamonlyagypsyNOSPAM@yahoo.com
                                                  (remove 'nospam' to email)


Gtr I (B F# B E G# C#) 
Gtr II (B F# B E G# C#)

v1.0 07-31-11


    
|------------------------------22----22-----||------16---14-----16---14-----16-16-16-16--||------19---19-----19---19-----19-19-19-19--||-------------------------------------------||--0-0---------0-0---------0-0--------------||--0-0---------0-0---------0-0--------------|| . . . . . .
|
|-------------------------------------------||-------------------------------------------||-------------------------------------------||-------------------------------------------||-------------------------------------------||-------------------------------------------|
|--------------------------------22----22------||------16---14-----16-----14-----16-16-16-16---||------19---19-----19-----19-----19-19-19-19---||----------------------------------------------||--0-0---------0-0-----------0-0---------------||--0-0---------0-0-----------0-0---------------|| . . . . . .
|
|----------------------------------------------||----------------------------------------------||----------------------------------------------||--0------------------(0)----------------------||--0------------------(0)----------------------||--0------------------(0)----------------------|
|---------------------------------------------||-------------------------||-------------12--------------12----------12--||------------12-----------||-------------15--------------15----------15--||------------15-----------||---------------------------------------------||-------------------------||--0-0-0-0---------0-0-0-0---------0-0-0------||-0-0-0-0--------0-0-0----||--0-0-0-0---------0-0-0-0---------0-0-0------||-0-0-0-0--------0-0-0----|| . . . . . . . . . . . . . . . . . .
| |
|---------------------------------------------||-------------------------||-------------12--------------12----------12--||------------12-----------||-------------15--------------15----------15--||------------15-----------||---------------------------------------------||-------------------------||--0-0-0-0---------0-0-0-0---------0-0-0------||-0-0-0-0--------0-0-0----||--0-0-0-0---------0-0-0-0---------0-0-0------||-0-0-0-0--------0-0-0----| . . . . . . . . . . . . . . . . . .
4x|----------------------------------------------||-------------12--------------12----------12---||-------------15--------------15----------15---||----------------------------------------------||--0-0-0-0---------0-0-0-0---------0-0-0-------||--0-0-0-0---------0-0-0-0---------0-0-0-------|| . . . . . . . . . . .
|
| 4x|----------------------------------------------||-------------12--------------12----------12---||-------------15--------------15----------15---||----------------------------------------------||--0-0-0-0---------0-0-0-0---------0-0-0-------||--0-0-0-0---------0-0-0-0---------0-0-0-------| . . . . . . . . . . .
|---------------------------------22----22-----||---------16---14-----16---14-----16-16-16--16-||---------19---19-----19---19-----19-19-19--19-||----------------------------------------------||-0---0-----------0-0---------0-0--------------||-0---0-----------0-0---------0-0--------------|
| . . . . . .|----------------------------------------------||----------------------------------------------||----------------------------------------------||----------------------------------------------||----------------------------------------------||----------------------------------------------|
|------------------------------------------------------------------------||------------------------------------------------------------------------||------------------------------------------------------------------------||--------------------------------[3]--------------------------------[3]--||--0---0-0---0-0-0-0---0---0---0------0-0-0-0---0-0-0-0---0---0---0------||--0-0-0-0---0-0-0-0---0---0---0------0-0-0-0---0-0-0-0---0---0---0------|| . . . . . . . . . . . . . . . . . . . . . .
| |
|----------------------------------------------------------------------||----------------------------------------------------------------------||----------------------------------------------------------------------||----------------------------------------------------------------------||--0000---0000---0---0---0--0---0000---0000---0---0---0--0---0---0-----||--0000---0000---0---0---0--0---0000---0000---0---0---0--0---0---0-----| .... .... . . . . .... .... . . . . . .
|--------------------------------------------------------------------------||-14-14-14-14-14-14-14-14-14-14-14-14-14-14-14-14--14-14-14-14-14-14-14-14-||-17-17-17-17-17-17-17-17-17-17-17-17-17-17-17-17--17-17-17-17-17-17-17-17-||--------------------------------------------------------------------------||--------------------------------------------------------------------------||--------------------------------------------------------------------------|
|------------------------------------------------------------------||-14-14-14-14-14-14-14-14--14-14-14-14-14-14-14-14-14-14-14-14-14--||-17-17-17-17-17-17-17-17--17-17-17-17-17-17-17-17-17-17-17-17-17--||------------------------------------------------------------------||------------------------------------------------------------------||------------------------------------------------------------------|
|---------------------||-14----(14)----------||-17b18-(17)b18\------||---------------------||---------------------||---------------------|
|--------------------------------------------------------------------------||--------------------------------------------------------------------------||--------------------------------------------------------------------------||-----------------------------------------[3]------------------------------||-0--0--0--0-----0--0--0--0-----0---0---0-------0--0--0--0-----0--0--0--0--||-0--0--0--0-----0--0--0--0-----0---0---0-------0--0--0--0-----0--0--0--0--| . . . . . . . . . . . . . . . . . . .(Continued)
|------------------------||------------------------||------------------------||------------[3]---------||-0---0---0-------0--0---||-0---0---0-------0--0---| . . . . .
3x|-----------------------------------------------------------------------||-----------------------------------------------------------------------||-----------------------------------------------------------------------||-----------------------------------------------------------------------||--1-4-3-1-4-3-1-4-0-0----1-4-3-1-4-3-1-4-0-0-3-1-4-3-1-4--0-0----0-0---||--1-4-3-1-4-3-1-4-0-0----1-4-3-1-4-3-1-4-0-0-3-1-4-3-1-4--0-0----0-0---|| . . . . . . . . . . . . . . . . . . . . . . . . . . . . . .
|
| 3x|-----------------------------------------------------------------------||-----------------------------------------------------------------------||-----------------------------------------------------------------------||-----------------------------------------------------------------------||--1-4-3-1-4-3-1-4-0-0----1-4-3-1-4-3-1-4-0-0-3-1-4-3-1-4--0-0----0-0---||--1-4-3-1-4-3-1-4-0-0----1-4-3-1-4-3-1-4-0-0-3-1-4-3-1-4--0-0----0-0---| . . . . . . . . . . . . . . . . . . . . . . . . . . . . . .
|-----------------||-----------------||-----------------||-----------------||--0-0---0-0------||--0-0---0-0------|| . . . .
| |
|-----------------||-----------------||-----------------||-----------------||--0-0---0-0------||--0-0---0-0------| . . . .
|-----------------------------------------------------------------------||-----------9-------9-------9-------9-------9-------9-------9-------9---||----------12------12------12------12------12------12------12------12---||-----------------------------------------------------------------------||--0---0-------0-0-----0-0-----0-0-----0-0-----0-0-----0-0-----0-0------||--0---0-------0-0-----0-0-----0-0-----0-0-----0-0-----0-0-----0-0------| . . . . . . . . . . . . . . . .
|--------------------------------------------------------------------------||----------9------12-------9------15-------9------12-------9------15-------||---------12------15------12------18------12------15------12------18-------||--------------------------------------------------------------------------||-0---0-------0-0-----0-0-----0-0-----0-0-----0-0-----0-0-----0-0-----0-0--||-0---0-------0-0-----0-0-----0-0-----0-0-----0-0-----0-0-----0-0-----0-0--| . . . . . . . . . . . . . . . . . .
|--------------------------------------------------------------------------||----------9------12-------9------15-------9------12-------9------15-------||---------12------15------12------18------12------15------12------18-------||--------------------------------------------------------------------------||-0---0-------0-0-----0-0-----0-0-----0-0-----0-0-----0-0-----0-0-----0-0--||-0---0-------0-0-----0-0-----0-0-----0-0-----0-0-----0-0-----0-0-----0-0--| . . . . . . . . . . . . . . . . . .
|--------------------------------------------------||--------------------------------------------------||--------------------------------------------------||-0----------(0)-----------------------------------||-0----------(0)-----------------------------------||-0----------(0)-----------------------------------|
| |
|--------------------------------------------------||--------------------------------------------------||--------------------------------------------------||---------------------0--------(0)--------0--------||---------------------0--------(0)--------0--------||---------------------0--------(0)--------0--------|
|------------------------------------------------------------------------||------------------------------------------------------------------------||------------------------------------------------------------------------||-----------3h7--------------3h7--8h12--7h11--------------3h7--------3h7-||--0--0--0-------0--0--0--0-------------------0--0--0--0-------0--0------||--0--0--0-------0--0--0--0-------------------0--0--0--0-------0--0------| . . . . . . . . . . . . .(Continued)
|---------------------||---------------------||---------------------||-2h6--5h9--7---------||---------------------||---------------------|
|------------------------------------------------------------------------||------------------------------------------------------------------------||------------------------------------------------------------------------||-----------3h7--------------3h7--8h12--7h11--------------3h7--------3h7-||--0--0--0-------0--0--0--0-------------------0--0--0--0-------0--0------||--0--0--0-------0--0--0--0-------------------0--0--0--0-------0--0------| . . . . . . . . . . . . .(Continued)
|----------------------||----------------------||----------------------||--2h6--5h9--7---------||----------------------||----------------------|
| |
|------------------------------------------------------------------||------------------------------------------------------------------||------------------------------------------------------------------||-------------3h7-------------------3h7---8h12---7h11--------------||--0--0---0-----------0---0---0---0--------------------------------||--0--0---0-----------0---0---0---0--------------------------------| . . . . . . .(continued)
|----------------------------------------------||----------------------------------------------||----------------------------------------------||-------------3h7-------3h7--2h6-----5h9---7---||-0--0--0--0-------0--0------------------------||-0--0--0--0-------0--0------------------------| . . . . . .
H H W|----------||----------||----------||-10-8-7---||----------||----------|
|
| H H W|----------||----------||----------||--5-3-2---||----------||----------|
|----------------------------------|---------------------------------||----------------------------------|---------------------------------||----------------------------------|---------------------------------||-------------------------7--5-----|------------------------5--3--2--||--0-0--0--0--0--0---0-0--------8--|-0-0--0--0--0--0---0-0-----------||--0-0--0--0--0--0---0-0-----------|-0-0--0--0--0--0---0-0-----------| . . . . . . . . . . . . . . . .
|---------------------------------|----------------||---------------------------------|----------------||---------------------------------|----------------||------------------------7--5-----|---10------7----||-0-0--0--0--0--0---0-0--------8--|-8-------5------||-0-0--0--0--0--0---0-0-----------|-8----8--5------| . . . . . . . . . . .
|------------------------------------|---------------------------------||------------------------------------|---------------------------------||------------------------------------|---------------------------------||-------------------------7--5-------|-----------------------5--3---2--||--0-0--0--0--0--0---0-0----------8--|-0-0--0--0--0--0---0-0-----------||--0-0--0--0--0--0---0-0-------------|-0-0--0--0--0--0---0-0-----------|| . . . . . . . . . . . . . . . .
| |
|------------------------------------|---------------------------------||------------------------------------|---------------------------------||------------------------------------|---------------------------------||------------------------10--8-------|-----------------------8--7---5--||--0-0--0--0--0--0---0-0---------12--|-0-0--0--0--0--0---0-0-----------||--0-0--0--0--0--0---0-0-------------|-0-0--0--0--0--0---0-0-----------| . . . . . . . . . . . . . . . .
|----------------------------------|------------------||----------------------------------|------------------||----------------------------------|------------------||------------------------7--5------|---10---------7---||-0-0--0--0--0--0---0-0----------8-|-8---------5------||-0-0--0--0--0--0---0-0------------|-8------8--5------|| . . . . . . . .
|
| X|----------------------------------|-----------------|---||----------------------------------|-----------------|---||----------------------------------|-----------------|---||-----------------------10--8------|-----------------|-0-||-0-0--0--0--0--0---0-0---------12-|-8-(8)-(8)-5-(5)-|-0-||-0-0--0--0--0--0---0-0------------|-8-(8)-(8)-5-(5)-|-0-| . . . . . . . .
|------------------------------------------------------------------------||------------------------------------------------------------------------||------------------------------------------------------------------------||-----------3h7--------------3h7--8h12--7h11--------------3h7--------3h7-||--0--0--0-------0--0--0--0-------------------0--0--0--0-------0--0------||--0--0--0-------0--0--0--0-------------------0--0--0--0-------0--0------| . . . . . . . . . . . . .
(Continued)
|--------------------||--------------------||--------------------||-2h6--5h9--7--------||--------------------||--------------------|
| |
|------------------------------------------------------------------------||------------------------------------------------------------------------||------------------------------------------------------------------------||--(0)---------------------(0)---------------------(0)-------------------||--(0)---------------------(0)---------------------(0)-------------------||--(0)---------------------(0)---------------------(0)-------------------|
|------------------------------------------------------------------------||------------------------------------------------------------------------||------------------------------------------------------------------------||-----------3h7--------------3h7--8h12--7h11--------------3h7--------3h7-||--0--0--0-------0--0--0--0-------------------0--0--0--0-------0--0------||--0--0--0-------0--0--0--0-------------------0--0--0--0-------0--0------| . . . . . . . . . . . . .(Continued)
|--------------------||--------------------||--------------------||-2h6--5h9--7--------||--------------------||--------------------|
|------------------------------------------------------------------------||------------------------------------------------------------------------||------------------------------------------------------------------------||-----------3h7--------------3h7--8h12--7h11--------------3h7--------3h7-||--0--0--0-------0--0--0--0-------------------0--0--0--0-------0--0------||--0--0--0-------0--0--0--0-------------------0--0--0--0-------0--0------| . . . . . . . . . . . . .(Continued)
|--------------------||--------------------||--------------------||-2h6--5h9--3h7------||--------------------||--------------------|
|------------------------------------------------------------||------------------------------------------------------------||------------------------------------------------------------||------------------------------------------------------------||-1-4-3-1-4-3-1-4--0--0----1-4-3-1-4--3---1-4-0-0---0-0------||-1-4-3-1-4-3-1-4--0--0----1-4-3-1-4--3---1-4-0-0---0-0------|| . . . . . . . . . . . . . . . . . . . . . .
| |
|------------------------------------------------------------||------------------------------------------------------------||------------------------------------------------------------||------------------------------------------------------------||-0---------------(0)----------------(0)------0-0---0-0------||-0---------------(0)----------------(0)------0-0---0-0------| . . . .
6x|---------------------------------------------------------------||---------------------------------------------------------------||---------------------------------------------------------------||---------------------------------------------------------------||--1-4-3-1-4-3-1-4-0-0----1-4-3-1-4-3-1-4-0-0---0-0-------------||--1-4-3-1-4-3-1-4-0-0----1-4-3-1-4-3-1-4-0-0---0-0-------------|| . . . . . . . . . . . . . . . . . . . . . .
|
| 6x|---------------------------------------------------------------||---------------------------------------------------------------||---------------------------------------------------------------||---------------------------------------------------------------||--1-4-3-1-4-3-1-4-0-0----1-4-3-1-4-3-1-4-0-0---0-0--------------||--1-4-3-1-4-3-1-4-0-0----1-4-3-1-4-3-1-4-0-0---0-0-------------| . . . . . . . . . . . . . . . . . . . . . .
--------------------------------------------------------------------------- Tablature Disclaimer: --------------------- Please take note, and be aware that this is not an official tab from the band themselves, but someone else's interpretation of the how the song is played.
Tap to rate this tab
 
# A B C D E F G H I J K L M N O P Q R S T U V W X Y Z