Brings – Ich Fahr tab

Ich fahr

Die Gitarren sind einen Halbton tiefer gestimmt!


Intro

1. Gitarre

1:-2/0---5-0---2/0---5-2---2/0---5-0---2/0---5-2---2/0---5-0---|2:-----3-----3-----3-----3-----3-----3-----3-----3-----3-----3-|3:-------------------------------------------------------------|4:-------------------------------------------------------------|5:-------------------------------------------------------------|6:-------------------------------------------------------------|
1. Gitarre h E A1:-2/0---5-2---2/0---5-2---2/0---5-2---2/0---5-2---2/0---5-2---|2:-----3-----3-----3-----3-----3-----3-----3-----3-----3-----3-|3:-------------------------------------------------------------|4:-------------------------------------------------------------|5:-------------------------------------------------------------|6:-------------------------------------------------------------|
2. Gitarre h E A1:-----5/7~----------------------------------------------------|2:-----------------------------------------------------7/5~----|3:-------------------------------------------------------------|4:-------------------------------------------------------------|5:-------------------------------------------------------------|6:-------------------------------------------------------------|
1. Gitarre h E A1:-2/0---5-2---2/0---5-2---2/0---5-2---2/0---5-2---2/0---5-2------|2:-----3-----3-----3-----3-----3-----3-----3-----3-----3-----3----|3:----------------------------------------------------------------|4:----------------------------------------------------------------|5:----------------------------------------------------------------|6:----------------------------------------------------------------|
2. Gitarre h E A1:---------------------------------------------------------10b12~-|2:----------------------------------------------------------------|3:-7~------4~-----------------------------------------------------|4:----------------------------------------------------------------|5:----------------------------------------------------------------|6:----------------------------------------------------------------|
1. Gitarre h E1:-2/0---5-2---2/0---5-2---2/0------5-2---2/0---5-2---2/0---5-2---|2:-----3-----3-----3-----3--------3-----3-----3-----3-----3-----3-|3:----------------------------------------------------------------|4:----------------------------------------------------------------|5:----------------------------------------------------------------|6:----------------------------------------------------------------|
2. Gitarre h E1:-------------10~------------------------------------------------|2:---------------------12~----------------7-----------------------|3:---------------------------9b11b9-7-----------------------------|4:------------------------------------9-7---9---------------------|5:----------------------------------------------------------------|6:----------------------------------------------------------------|
1. Gitarre A h E1:-2/0---5-2---2/0---5-2---2/0---5-2---2/0---5-2---2/0---5-2---|2:-----3-----3-----3-----3-----3-----3-----3-----3-----3-----3-|3:-------------------------------------------------------------|4:-------------------------------------------------------------|5:-------------------------------------------------------------|6:-------------------------------------------------------------|
2. Gitarre A h E1:-------------------------------------------------------------|2:-------------------------------------------------------------|3:-------------------------7~------7~----7~--------------7~----|4:-------------------------------------------------------------|5:-------------------------------------------------------------|6:-------------------------------------------------------------|
1. Gitarre h1:-2/0---5-2---2/0---5-2-|2:-----3-----3-----3-----|3:-----------------------|4:-----------------------|5:-----------------------|6:-----------------------|
2. Gitarre h1:-------5-5---7-5-7-5-7-|2:---5/7-----7-----------|3:-----------------------|4:-----------------------|5:-----------------------|6:-----------------------|
1. Strophe h En wärme Sommernaach un ich cruse langsam durch die Stadt, e Riff 1 du jeihs mir nit mieh us dem Kopp, ejal wohin ich fahr. h Türkeschüss ston op d´r Eck un ich denk an dich, A E h Riff 2 gläuv mer, Fraulück maache mich nor noch fädisch. Riff 1
1:-12-10-12~-|2:-----------|3:-----------|4:-----------|5:-----------|6:-----------|
Riff 2
1:---------------|2:---------------|3:-7--7---7-9-7~-|4:-9----9--------|5:---------------|6:---------------|
Refrain A E Riff 3 A E Riff 3 Un ich fahr, fahr, fahr, fahr, du bes nit mieh do. A E Riff 3 A E Riff 4 E A Un ich fahr, fahr, fahr, fahr, nix es wie et wor, wie et wor. Riff 3
h1:-------------|2:-------------|3:-------------|4:-9---7-9---7-|5:---9-----9---|6:-------------|
Riff 4 1:--------|
2:-10/12~-|3:--------|4:--------|5:--------|6:--------|
2. Strophe h Riff 5 De nöchste Eck un ich bliev ston, en Ampel hält mich op, e Riff 1 die rude Färv, ich loor se an un et bringk mich drop. h Ding Fingernähl in minger Haut, ich han mich nie jetraut, A E h Riff 2 ich han mich leider nie jetraut. Riff 5
1:--------|2:--------|3:-7/9-7~-|4:--------|5:--------|6:--------|
Refrain A E Riff 3 A E Riff 3 Un ich fahr, fahr, fahr, fahr, du bes nit mieh do. A E Riff 3 A E h Riff 6 Un ich fahr, fahr, fahr, fahr, nix es wie et wor. Riff 6
D1:------------------|2:------------------|3:-------7-7-----7~-|4:-7-7-7-----7-9----|5:------------------|6:------------------|
D f# Ich han volljetank, bin us d´r Stadt erus, h G eetz op d´r Autobahn, weed et mir bewuss. D Ejal wohin ich fahr, du bes immer do, e Riff 7 A ejal wohin ich jon, ich sinn dich vör mir ston, ejal wohin ich jon. Riff 7
F# A1:---6~---/9~-|2:-7----------|3:------------|4:------------|5:------------|6:------------|
Refrain A E Riff 3 A E Riff 3 Un ich fahr, fahr, fahr, fahr, du bes nit mieh do. A E Riff 3 A E h Un ich fahr, fahr, fahr, fahr, nix es wie et wor. 3. Strophe h Riff 8 Ding Verjangenheit, die klääv an dir, wie ne Käujes ungerm Schoh e Riff 1 un fährs du uch su schnell du kanns, du fings einfach kein Rauh. h Et kütt ding Zick, et kütt ding Stund, do läuf et för dich uch ens rund, A E h Riff 9 bes dohin fahr, fahr, fahr. Riff 8
1:-----5~-|2:-7-7----|3:--------|4:--------|5:--------|6:--------|
Riff 9
1:-----------------------|2:-----------------------|3:-11/9-7----------------|4:--------9---7/9-9-7-9~-|5:----------9------------|6:-----------------------|
Refrain A E Riff 3 A E Riff 3 Riff 10 Un ich fahr, fahr, fahr, fahr, du bes nit mieh do. A E Riff 3 Riff 11 A E Riff 3 Un ich fahr, fahr, fahr, fahr, nix es wie et wor. Riff 10
h1:-----------|2:-12-10-12~-|3:-----------|4:-----------|5:-----------|6:-----------|
Riff 11
h1:-10b12-10----|2:----------12-|3:-------------|4:-------------|5:-------------|6:-------------|
A E Riff 3 Riff 12 A E Riff 3 Riff 13 Un ich fahr, fahr, fahr, fahr, du bes nit mieh do. A E Riff 3 A E h Un ich fahr, fahr, fahr, fahr, nix es wie et wor. Riff 12
h1:-10/12-12-10/12-12-10/12-12-10/12-12-10/12-12-10/12~-|2:-----------------------------------------------------|3:-----------------------------------------------------|4:-----------------------------------------------------|5:-----------------------------------------------------|6:-----------------------------------------------------|
Riff 13
h1:-10----10/12------------------|2:----12-------12~-10-12--------|3:-----------------------11-----|4:--------------------------12~-|5:------------------------------|6:------------------------------|
------------------------------------------------------ Mehr BRINGS-Tabs auf brings-tabs.de.vu! ------------------------------------------------------
Please rate this tab:
x1.0