Broadway Calls - Call It Off tab version 2

Call It Off by Broadway Calls



Intro|--------------------------------||--------------------------------||--11(h)12(p)11-----14----14-----||---------------12----12----12---||--------------------------------||--------------------------------| (x3)
------------------------------|------------------------------|--(11)12-11-------------------|------------12--14--12--------|------------------------14--12|------------------------------|
|----------------------------------------------------------||----------------------------------------------------------||--11s12s11-----14(p)11----14(p)11----14(p)11---14(p)11----||-----------12----------12---------12--------12--------12--||----------------------------------------------------------||----------------------------------------------------------| (x3)
---------------------------------------------|---------------------------------------------|--(11)12-11----------------------------------|------------12--14--12----------12(let ring)-|------------------------14--12---------------|---------------------------------------------|
Verse|---------||---------||-------7-||--7-7--7-||--7-7--5-||--5-5----| *
|------------------------------------------------------------------||------------------------------------------------------------------||--7-7-7-7-7-7-7-7-7-7-7-7-7-7-7-7---------------------------------||--7-7-7-7-7-7-7-7-7-7-7-7-7-7-7-7-7-7-7-7-7-7-7-7-7-7-7-7-7-7-7-7-||--5-5-5-5-5-5-5-5-5-5-5-5-5-5-5-5-7-7-7-7-7-7-7-7-7-7-7-7-7-7-7-7-||----------------------------------5-5-5-5-5-5-5-5-5-5-5-5-5-5-5-5-| * * * * * * * * * * * * * * * * * * * * * * * * * * * * * * * *
--------------------------------------------------------------------|--------------------------------------------------------------------|--------------------------------------------------------------------|--9-9-9-9-9-9-9-9-9-9-9-9-9-9-9-9--8-8-8-8-8-8-8-8-8-8-8-8-8-8-8-8--|--9-9-9-9-9-9-9-9-9-9-9-9-9-9-9-9--8-8-8-8-8-8-8-8-8-8-8-8-8-8-8-8--|--7-7-7-7-7-7-7-7-7-7-7-7-7-7-7-7--6-6-6-6-6-6-6-6-6-6-6-6-6-6-6-6--|
------------------------------------------------------|------------------------------------------------------|-----------------------------------x-x--x-x--x-x--x-x-|--7-7-7-7-7-7-7-7-7-7-7-7-7-7-7-7--x-x--x-x--x-x--x-x-|--7-7-7-7-7-7-7-7-7-7-7-7-7-7-7-7--x-x--x-x--x-x--x-x-|--5-5-5-5-5-5-5-5-5-5-5-5-5-5-5-5--x-x--x-x--x-x--x-x-|
|---------------------------------------------------------------------||---------------------------------------------------------------------||--7--7-7-7-7-7-7-7-7-7-7-7-7-7-7-7-7---------------------------------||--7--7-7-7-7-7-7-7-7-7-7-7-7-7-7-7-7-7-7-7-7-7-7-7-7-7-7-7-7-7-7-7-7-||--5--5-5-5-5-5-5-5-5-5-5-5-5-5-5-5-5-7-7-7-7-7-7-7-7-7-7-7-7-7-7-7-7-||-------------------------------------5-5-5-5-5-5-5-5-5-5-5-5-5-5-5-5-| * * * * * * * * * * * * * * * * * * * * * * * * * * * * * * * *
--------------------------------------------------------------------|--------------------------------------------------------------------|--------------------------------------------------------------------|--9-9-9-9-9-9-9-9-9-9-9-9-9-9-9-9--8-8-8-8-8-8-8-8-8-8-8-8-8-8-8-8--|--9-9-9-9-9-9-9-9-9-9-9-9-9-9-9-9--8-8-8-8-8-8-8-8-8-8-8-8-8-8-8-8--|--7-7-7-7-7-7-7-7-7-7-7-7-7-7-7-7--6-6-6-6-6-6-6-6-6-6-6-6-6-6-6-6--|
------------------------------------------------------|------------------------------------------------------|-----------------------------------x-x--x-x--x-x--x-x-|--7-7-7-7-7-7-7-7-7-7-7-7-7-7-7-7--x-x--x-x--x-x--x-x-|--7-7-7-7-7-7-7-7-7-7-7-7-7-7-7-7--x-x--x-x--x-x--x-x-|--5-5-5-5-5-5-5-5-5-5-5-5-5-5-5-5--x-x--x-x--x-x--x-x-|
Chorus:|-------------------------------------------------------------------||-------------------------------------------------------------------||--7-7-7-7-7-7-7-7-7-7-7-7-7-7-7-7----------------------------------||--7-7-7-7-7-7-7-7-7-7-7-7-7-7-7-7--7-7-7-7-7-7-7-7-7-7-7-7-7-7-7-7-||--5-5-5-5-5-5-5-5-5-5-5-5-5-5-5-5--7-7-7-7-7-7-7-7-7-7-7-7-7-7-7-7-||-----------------------------------5-5-5-5-5-5-5-5-5-5-5-5-5-5-5-5-|
------------------------------------|------------------------------------|------------------------------------|------------------------------------|-------4-4-----4-4----5-5-----5-5---|-----2-----2-2-----2-3----3-3-----3-| (x2)
|---------||---------||---------||-4~-5~---||-4~-5~---||-2~-3~---|This Is...
Verse|---------||---------||-------7-||--7-7--7-||--7-7--5-||--5-5----| *
|------------------------------------------------------------------||------------------------------------------------------------------||--7-7-7-7-7-7-7-7-7-7-7-7-7-7-7-7---------------------------------||--7-7-7-7-7-7-7-7-7-7-7-7-7-7-7-7-7-7-7-7-7-7-7-7-7-7-7-7-7-7-7-7-||--5-5-5-5-5-5-5-5-5-5-5-5-5-5-5-5-7-7-7-7-7-7-7-7-7-7-7-7-7-7-7-7-||----------------------------------5-5-5-5-5-5-5-5-5-5-5-5-5-5-5-5-| * * * * * * * * * * * * * * * * * * * * * * * * * * * * * * * *
--------------------------------------------------------------------|--------------------------------------------------------------------|--------------------------------------------------------------------|--9-9-9-9-9-9-9-9-9-9-9-9-9-9-9-9--8-8-8-8-8-8-8-8-8-8-8-8-8-8-8-8--|--9-9-9-9-9-9-9-9-9-9-9-9-9-9-9-9--8-8-8-8-8-8-8-8-8-8-8-8-8-8-8-8--|--7-7-7-7-7-7-7-7-7-7-7-7-7-7-7-7--6-6-6-6-6-6-6-6-6-6-6-6-6-6-6-6--|
------------------------------------------------------|------------------------------------------------------|-----------------------------------x-x--x-x--x-x--x-x-|--7-7-7-7-7-7-7-7-7-7-7-7-7-7-7-7--x-x--x-x--x-x--x-x-|--7-7-7-7-7-7-7-7-7-7-7-7-7-7-7-7--x-x--x-x--x-x--x-x-|--5-5-5-5-5-5-5-5-5-5-5-5-5-5-5-5--x-x--x-x--x-x--x-x-|
|---------------------------------------------------------------------||---------------------------------------------------------------------||--7--7-7-7-7-7-7-7-7-7-7-7-7-7-7-7-7---------------------------------||--7--7-7-7-7-7-7-7-7-7-7-7-7-7-7-7-7-7-7-7-7-7-7-7-7-7-7-7-7-7-7-7-7-||--5--5-5-5-5-5-5-5-5-5-5-5-5-5-5-5-5-7-7-7-7-7-7-7-7-7-7-7-7-7-7-7-7-||-------------------------------------5-5-5-5-5-5-5-5-5-5-5-5-5-5-5-5-| * * * * * * * * * * * * * * * * * * * * * * * * * * * * * * * *
--------------------------------------------------------------------|--------------------------------------------------------------------|--------------------------------------------------------------------|--9-9-9-9-9-9-9-9-9-9-9-9-9-9-9-9--8-8-8-8-8-8-8-8-8-8-8-8-8-8-8-8--|--9-9-9-9-9-9-9-9-9-9-9-9-9-9-9-9--8-8-8-8-8-8-8-8-8-8-8-8-8-8-8-8--|--7-7-7-7-7-7-7-7-7-7-7-7-7-7-7-7--6-6-6-6-6-6-6-6-6-6-6-6-6-6-6-6--|
------------------------------------------------------|------------------------------------------------------|-----------------------------------x-x--x-x--x-x--x-x-|--7-7-7-7-7-7-7-7-7-7-7-7-7-7-7-7--x-x--x-x--x-x--x-x-|--7-7-7-7-7-7-7-7-7-7-7-7-7-7-7-7--x-x--x-x--x-x--x-x-|--5-5-5-5-5-5-5-5-5-5-5-5-5-5-5-5--x-x--x-x--x-x--x-x-|
Chorus:|-------------------------------------------------------------------||-------------------------------------------------------------------||--7-7-7-7-7-7-7-7-7-7-7-7-7-7-7-7----------------------------------||--7-7-7-7-7-7-7-7-7-7-7-7-7-7-7-7--7-7-7-7-7-7-7-7-7-7-7-7-7-7-7-7-||--5-5-5-5-5-5-5-5-5-5-5-5-5-5-5-5--7-7-7-7-7-7-7-7-7-7-7-7-7-7-7-7-||-----------------------------------5-5-5-5-5-5-5-5-5-5-5-5-5-5-5-5-|
------------------------------------|------------------------------------|------------------------------------|------------------------------------|-------4-4-----4-4----5-5-----5-5---|-----2-----2-2-----2-3----3-3-----3-| (x2)
|------------------||------------------||------------------||-4~-5~----4~-5~---||-4~-5~----4~-5~---||-2~-3~----2~-3~---|This Is...
Bridge|---------------------------------------------------||---------------------------------------------------||--555-555-555-222-222-222-555-555-555-222-222-222--||--555-555-555-222-222-222-555-555-555-222-222-222--||--333-333-333-000-000-000-333-333-333-000-000-000--||---------------------------------------------------|
|-------------------------------------------------------------------||-------------------------------------------------------------------||---------2-2-------------2-2-------------2-2-------------2-2-------||-----4-4-----4-4-----4-4-----4-4-----2-2-----2-2-----2-2-----2-2---||-2-2-------------2-2-------------0-0-------------0-0---------------||-------------------------------------------------------------------| (x2)
|-------------------||-------------------||--2-2-2-2-2-2-2-2--||--2-2-2-2-2-2-2-2--||--0-0-0-0-0-0-0-0--||-------------------|
Acoustic Chorus|-------------------------------------------------------------------||-------------------------------------------------------------------||--7-7-7-7-7-7-7-7-7-7-7-7-7-7-7-7----------------------------------||--7-7-7-7-7-7-7-7-7-7-7-7-7-7-7-7--7-7-7-7-7-7-7-7-7-7-7-7-7-7-7-7-||--5-5-5-5-5-5-5-5-5-5-5-5-5-5-5-5--7-7-7-7-7-7-7-7-7-7-7-7-7-7-7-7-||-----------------------------------5-5-5-5-5-5-5-5-5-5-5-5-5-5-5-5-|
-------------------------------------------------------------------|-------------------------------------------------------------------|-------------------------------------------------------------------|--4-4-4-4-4-4-4-4-4-4-4-4-4-4-4-4--5-5-5-5-5-5-5-5-5-5-5-5-5-5-5-5-|--4-4-4-4-4-4-4-4-4-4-4-4-4-4-4-4--5-5-5-5-5-5-5-5-5-5-5-5-5-5-5-5-|--2-2-2-2-2-2-2-2-2-2-2-2-2-2-2-2--3-3-3-3-3-3-3-3-3-3-3-3-3-3-3-3-|
End Chorus|-------------------------------------------------------------------||-------------------------------------------------------------------||--7-7-7-7-7-7-7-7-7-7-7-7-7-7-7-7----------------------------------||--7-7-7-7-7-7-7-7-7-7-7-7-7-7-7-7--7-7-7-7-7-7-7-7-7-7-7-7-7-7-7-7-||--5-5-5-5-5-5-5-5-5-5-5-5-5-5-5-5--7-7-7-7-7-7-7-7-7-7-7-7-7-7-7-7-||-----------------------------------5-5-5-5-5-5-5-5-5-5-5-5-5-5-5-5-|
------------------------------------|------------------------------------|------------------------------------|------------------------------------|-------4-4-----4-4----5-5-----5-5---|-----2-----2-2-----2-3----3-3-----3-| (x3)
|---------||---------||---------||-4~-5~---||-4~-5~---||-2~-3~---|This Is...
Tap to rate this tab
 
# A B C D E F G H I J K L M N O P Q R S T U V W X Y Z