Brooks Garth - Dance tab

IntroQ=1224/4Gtr I PM------------------------------------------------|--------------||-------------------------------------------||--------------||-------------------------------------------||---------12-x-||--9--13-11-x-13-x-9-13-x-11-9-13-11-x-9-11-||--------------||-------------------------------------------||--------------||-------------------------------------------||--------------||-------------------------------------------|
|
| Gtr II|--------------||-------------------------------------------||--------------||-------------------------------------------||-------7--9---||-(9)---------------------------------------||-------7--9---||-(9)---------------------------------------||-------5--7---||-(7)---------------------------------------||--------------||-------------------------------------------|
|--------------------------------------------||--------------------------------------------||-13--9-x-13-14-x-x-14-13--x-13-14-13-9-13-x-||--------------------------------------------||--------------------------------------------||--------------------------------------------|
|
|--------------------------------------------||--------------------------------------------||-(9)------------------(9)----7-----7----9---||-(9)------------------(9)----7-----7----9---||-(7)------------------(7)----5-----5----7---||--------------------------------------------|
PM---------------------------------------|------------------------------------------||------------------------------------------||-13--x-9-13-13-x-9-13-11-x-9-11-13-9-x-13-||------------------------------------------||------------------------------------------||------------------------------------------|
|
|------------------------------------------||------------------------------------------||-(9)--------------------------------------||-(9)--------------------------------------||-(7)--------------------------------------||------------------------------------------|
------------------------------------------||--------------------------------------------||--------------------------------------------||-14--x-x-14-13-x-11-13--x--x-13-14-x-9-13-x-||--------------------------------------------||--------------------------------------------||--------------------------------------------|
|
|--------------------------------------------||--------------------------------------------||-(9)-------------------(9)----7----7----9---||-(9)-------------------(9)----7----7----9---||-(7)-------------------(7)----5----5----7---||--------------------------------------------|
PM---------------------------------------|------------------------------------------||------------------------------------------||-13--x-9-13-11-x-9-11-13-9-x-13-14-x-x-14-||------------------------------------------||------------------------------------------||------------------------------------------|
|
|------------------------------------------||------------------------------------------||-(9)--------------------------------------||-(9)--------------------------------------||-(7)--------------------------------------||------------------------------------------|
------------------------------------------||--------------------------------------------||--------------------------------------------||-16--x-x-16-14-9-x-14-13--x-13-14-13-9-13-x-||--------------------------------------------||--------------------------------------------||--------------------------------------------|
|
|--------------------------------------------||--------------------------------------------||-(9)------------------(9)----7-----7----9---||-(9)------------------(9)----7-----7----9---||-(7)------------------(7)----5-----5----7---||--------------------------------------------|
7/4 PM-------------------------------------------------------| PM||-----------------------------------------------------------------------|||-----------------------------------------------------------------------|||-13--x-9-13-11-x-9-11-13-9-x-13-14-9-x-14-16--x-13-16-x-13-x--13-12b13-|||-----------------------------------------------------------------------|||-----------------------------------------------------------------------|||-----------------------------------------------------------------------||
|
|-----------------------------------------------------------------------|||-----------------------------------------------------------------------|||-(9)--------------------------------------(9)--------------------------|||-(9)--------------------------------------(9)--------------------------|||-(7)--------------------------------------(7)--------------------------|||-----------------------------------------------------------------------||
Pre-Verse 4/4 ~~~~|----------------------------||----------------------------||-(12)----12-(12)---10---10--||----------------------9-----||----------------------------||----------------------------|
|
| PM--------||----------------------------||--------------------3-------||--------------------0-------||---5s7----7---------0-------||---5S7----7-----------------||---3S5-5--5---5--5--3-------|
~~~ ~~ ~~~PM~~~~~~~~~|---------------|-------------------|------------------||-10------------|-5s7----5-(5)---5--|-(5)----5-7-5-----||--9------------|-5s7----5-(5)---5--|-(5)----5-7-5-5/--||---------------|--------------7----|------------------||---------------|-------------------|------------------||---------------|-------------------|------------------|
|
|---------------|-------------------|------------------||-(3)-----------|----------------3--|-(3)--------------||-(0)-----------|---5s7--7-------5--|-(5)----5s7-7-----||-(0)----5s7s5--|---5S7--7-------5--|-(5)----5s7-7-----||--------5S7S5--|---3S5--5-------3--|-(3)----3s5-5-----||-(3)-----------|-------------------|------------------|
~~|--------------------------------------------||-14-20-14-20-20---(20)-20p19p17-19p17-14----||--------------------------------------------||-----------------------------------------17-||--------------------------------------------||--------------------------------------------|
|
| PM---||--------------------------------------------||---------------------------------3----------||---------------------------------0----------||--5s=7----------7----------------0----------||--5S=7----------7---------------------------||--3S=5-----5----5---5---5--------3----------|
|-----------------------------------------------||-14--19p17p14----14----------------------------||--------------17----17p14----17p14-------------||--------------------------17-------17-15----14-||-----------------------------------------17----||-----------------------------------------------|
|
|-----------------------------------------------||-(3)-------------------------------------------||-(0)-------------------------------------------||-(0)-----------------------5S====7S====5-------||---------------------------5S====7S====5-------||-(3)-------------------------------------------|
|---------------------------------------------------||--------------------------------------13-15-15b17--||--------------------------------12-14--------------||-14-12-10----12-10-------12--14--------------------||----------12-------12-10---------------------------||---------------------------------------------------|
|
|---------------------------------------------------||---------------------------------------------------||--7-----------7-----5----(5)-----5-----7-----------||--7-----------7-----5----(5)-----5-----7-----------||--5-----------5-----3----(3)-----3-----5-----------||---------------------------------------------------|
~~|----------------15----15----15-------||-15b17r(15)-15--15b17-15b17-15b17----||----------------------------------14-||-------------------------------------||-------------------------------------||-------------------------------------|
|
|-------------------------------------||-------------------------------------||--7------5------(5)----5-----5s====7-||--7------5------(5)----5-----5s====7-||--5------3------(3)----3-----3s====5-||-------------------------------------|
Verse||----------------|------------|---------------|||o---------------|------------|---------------|||----------------|------------|---------------|||----------------|------------|---------------|||o---------------|------------|---------------|||----------------|------------|---------------|
|
||----------------|------------|---------------|||o---------------|------------|-3---3-(3)--3--|||-------2-(2)----|-(2)--------|-0---0-(0)--0--|||--5S7--2-(2)----|-(2)--------|-0---0-(0)--0--|||o-5S7--0-(0)----|-(0)--------|-3---2-(2)--3--|||--3S5-----------|------------|---------------|
Gtr I|--------------|-----------------|--------------------||--------------|-----------------|--------------------||--------------|-4-2---2-(2)-----|-(2)----------------||--------------|-4-2---2-(2)-----|-(2)----------------||--------------|-2-0---0-(0)-----|-(0)----------------||--------------|-----------------|--------------------|
|
| Gtr II|--------------|-----------------|--------------------||-(3)----------|-----------------|--------------------||-(0)----------|-4-2---2-(2)---2-|-(2)---(2)-(2)--2-4-||-(0)----------|-4-2---2-(2)---2-|-(2)---(2)-(2)------||-(3)------3p0-|-2-0---0-(0)---0-|-(0)---(0)-(0)------||--------------|-----3-----------|--------------------|
|---------------|-----------------------||-3---3-(3)--3--|-(3)-------------------||-0---0-(0)--0--|-(0)-------------------||-0---0-(0)--0--|-(0)-------------------||-3---2-(2)-----|-----------------------||------------3--|-(3)-------------------|
|
|---------------|-----------------------||-3---3-(3)--3--|-(3)----(3)------------||-0---0-(0)--0--|-(0)----(0)-------x---||-0---0-(0)--0--|-(0)----(0)-12--------||-3---2-(2)-----|-----------------------||------------3--|-(3)----(3)------------|
Gtrs I, II|---------------|------------|---------------|------------|----------------||---------------|------------|-3---3-(3)--3--|-(3)--------|----------------||-4-2--2-(2)----|-(2)--------|-0---0-(0)--0--|-(0)--------|-4-2---2-(2)----||-4-2--2-(2)----|-(2)--------|-0---0-(0)--0--|-(0)--------|-4-2---2-(2)----||-2-0--0-(0)----|-(0)--------|-3---2-(2)--3--|-(3)--------|-2-0---0-(0)----||---------------|------------|---------------|------------|-----3----------|
Pre-Chorus $ ~|--------------|---------------|--------------|----------------||--------------|-3---3-(3)--3--|-(3)----------|----------------||-(2)------2-4-|-0---0-(0)--0--|-(0)------0-5-|-(5)s7-7--7---5-||-(2)----------|-0---0-(0)--0--|-(0)--------5-|-(5)s7-7--7---5-||-(0)----------|-3---2-(2)-----|------------3-|-(3)s5-5--5---3-||--------------|------------3--|-(3)----------|----------------|
~ ~ ~|----------------|----------------|----------------|----------------||----------------|----------------|----------------|----------------||-(5)s7-7--7---5-|-(5)s7-7--7---7-|-(7)-5-5--5---5-|-(5)s7-7--7---5-||-(5)s7-7--7---5-|-(5)s7-7--7---7-|-(7)-5-5--5---5-|-(5)s7-7--7---5-||-(3)s5-5--5---3-|-(3)s5-5--5---5-|-(5)-3-3--3---3-|-(3)s5-5--5---3-||----------------|----------------|----------------|----------------|
5/4 ~|----------------|-------------------------||----------------|-------------------------||-(5)s7-7--7---5-|-(5)s7-7--7---7-(7)-13-x-||-(5)s7-7--7---5-|-(5)s7-7--7---7-(7)------||-(3)s5-5--5---3-|-(3)s5-5--5---5-(5)------||----------------|-------------------------|
|
| Gtr III| ~|----------------|-------------------------||----------------|-------------------------||-----7-7--7---5-|-(5)s7-7--7---7-(7)------||-----7-7--7---5-|-(5)s7-7--7---7-(7)--2---||-----5-5--5---3-|-(3)s5-5--5---5-(5)--2---||----------------|---------------------0---|
4/4|-------------------------------------------||-------------------------------------------||--9--13-11-x-13-x-9-13-x-9-11-13-11-x-9-11-||-------------------------------------------||-------------------------------------------||-------------------------------------------|
|
|-------------------------------------------||-------------------------------------------||-------------------------------------------||-(2)---------------------------------------||-(2)---------------------------------------||-(0)---------------------------------------|
To Coda|--------------------------------------------||--------------------------------------------||-13--9-x-13-14-x-x-14-13--x-13-14-13-9-13-9-||--------------------------------------------||--------------------------------------------||--------------------------------------------|
|
|--------------------------------------------||--------------------------------------------||-----------------------------7-----7----9---||-(2)------------------(2)----7-----7----9---||-(2)------------------(2)----5-----5----7---||-(0)------------------(0)-------------------|
7/4 ~~~~|--------------------------------------------------------------------------||--------------------------------------------------12b13-(12)--12b14-(12)--||-13--x-9-13-11-x-9-11-13-9-x-13-14-9-x-14-16--x-x-------------------------||--------------------------------------------------------------------------||--------------------------------------------------------------------------||--------------------------------------------------------------------------|
|
|--------------------------------------------------------------------------||--------------------------------------------------------------------------||-(9)--------------------------------------(9)-----------------------------||-(9)--------------------------------------(9)-----------------------------||-(7)--------------------------------------(7)-----------------------------||--------------------------------------------------------------------------|
Chorus $$ 4/4|-----------------------|----------------|---------------|----------------||-----------------------|----------------|---------------|----------------||-----------------------|----------------|-5s7--7-----5--|-(5)----5s7-7s5-||--5s7---7-----------5--|--(5)----5-5-5--|-5s7--7-----5--|-(5)----5s7-7s5-||--5s7---7-----------5--|--(5)----5-5-5--|-3s5--5-5-5-3--|-(3)----3s5-5s3-||--3s5---5---x--x----3--|--(3)----3-3-3--|---------------|----------------|
|
| ~~~~|-----------------------|----------------|---------------|----------------||-12----12-(12)-----10--|-(10)-----------|---------------|----------------||-----------------9-----|----------------|-5s7--7-----5--|-(5)----5s7-7s5-||-----------------------|----------------|-5s7--7-----5--|-(5)----5s7-7s5-||-----------------------|----------------|-3s5--5-5-5-3--|-(3)----3s5-5s3-||-----------------------|----------------|---------------|----------------|
1. To Dbl. Coda Gtrs I, II|---------------|----------------|-----------------|----------------|||---------------|----------------|-----------------|---------------o|||-5s7--7--------|----------------|-7-7-5-(5)--7--7-|-7-5---5-5-5s7--|||-5s7--7-----5--|-(5)----5s7-5s7-|-7-7-5-(5)--7--7-|-7-5---5-5-5s7--|||-3s5--5-5-5-5--|-(5)----5s7-5s7-|-5-5-3-(3)--5--5-|-5-3---3-3-3s5-o|||------------3--|-(3)----3s5-3s5-|-----------------|----------------||
Guitar Solo 2. ~~~~~|---------------|--------------------------------------------||---------------|--8b10--(8)--(8)--8b10--(8)--(8)--(8)--8b10-||-7-5---5-5-5s7-|-10----(10)-(10)-10----(10)-(10)-(10)-10----||-7-5---5-5-5s7-|--------------------------------------------||-5-3---3-3-3s5-|--------------------------------------------||---------------|--------------------------------------------|
|
| Gtr III|---------------|--------------------------------------------||---------------|--------------------------------------------||-7-5---5-5-5s7-|--------------------------------------------||-7-5---5-5-5s7-|--5------7--------7------7------------------||-5-3---3-3-3s5-|--5------7--------7------7------------------||---------------|--3------5--------5------5------------------|
~|-------------------------||--(8)----------------8-8-||-(10)--9-9-5h7h9-5---5-7-||-------------------7-----||-------------------------||-------------------------|
|
|-------------------------||-------------------------||-------------------------||--(7)--------------------||--(7)--------------------||--(5)--------------------|
~~~~~~~~~~~ ~~|------------------|------------------|-------------------17---------------||-8--------8--8---7|-(7)-(x)-----15s17|22p17-22-22---(22)----20-19h20p19p17||-7pb9r7p5-7--7---7|-(7)-(x)----------|------------------------------------||------------------|---------/19------|------------------------------------||------------------|------------------|------------------------------------||------------------|------------------|------------------------------------|
|
|------------------|------------------|------------------------------------||-3--------3-(3)--3|-(3)--------------|------------------------------------||-0--------0-(0)--0|-(0)--------------|-4-----2----2---2-------------------||-0--------0-(0)--0|-(0)--------------|-4-----2--5-2---2-------------------||-3--------2-(2)---|------------------|-2-----0--5-0---0-------------------||-----------------3|-(3)--------------|----------3-------------------------|
|-----------------------------------------------------||-----17----------------------------------------------||-19-----19p17-19p17----17s16-------------------------||--------------------19-------19-17----19-17----------||-----------------------------------19-------19-17s15-||-----------------------------------------------------|
|
|-----------------------------------------------------||-----------------------------------------------------||-(2)-----------------------------------2-----4-------||-(2)-----------------------------------2-----4-------||-(0)-----------------------------------0-----2-------||-----------------------------------------------------|
|--------------------------------------------------------||--------------------------------------------------20----||----------------------17-19----17-19b21-(19)-(19)----19-||----------------17-19-------19--------------------------||-17----15-17-19-----------------------------------------||----17--------------------------------------------------|
|
|--------------------------------------------------------||--------------------------------3---------3-------------||--5-----4-----2-----4-----2-----0---------0-------------||--5-----4-----2-----4-----2-----0---------0-------------||--3-----2-----0-----2-----0-----------------------------||--------------------------------3---------3-------------|
D.S. al Coda|--------------------------|||--------------------------|||-(19)----19b21-19-17------|||----------------------19--|||--------------------------|||--------------------------||
|
|--------------------------|||--(3)-------------(3)-----|||--(0)-------------(0)--5--|||--(0)-------------(0)--5--|||-----------------------3--|||--(3)-------------(3)-----||
&|-------------------------------------------||-------------------------------------------||-13-x-9-13-11-x-9-11-13-x-11-13-16-x-11-16-||-------------------------------------------||-------------------------------------------||-------------------------------------------|
|
|-------------------------------------------||-------------------------------------------||--9----------------------------------------||--9----------------------------------------||--7----------------------------------------||-------------------------------------------|
|-------------------------------------------||-------------------------------------------||-14--x-x-14-13-x-x-13-11-x-14-13-9-11-13-x-||-------------------------------------------||-------------------------------------------||-------------------------------------------|
|
|-------------------------------------------||-------------------------------------------||-(9)-------------------7----7----7-----9---||-(9)-------------------7----7----7-----9---||-(7)-------------------5----5----5-----7---||-------------------------------------------|
|--------------------------------------------||--------------------------------------------||-13--x-9-13-11-x-9-11-13-x-11-13-14-x-11-14-||--------------------------------------------||--------------------------------------------||--------------------------------------------|
|
|--------------------------------------------||--------------------------------------------||-(9)----------------------------------------||-(9)----------------------------------------||-(7)----------------------------------------||--------------------------------------------|
|-------------------------------------------||-------------------------------------------||-13--9-x-13-11-x-9-11-13--x-9-13-9-11-13-x-||-------------------------------------------||-------------------------------------------||-------------------------------------------|
|
|-------------------------------------------||-------------------------------------------||-(9)------------------(9)---7----7-----9---||-(9)------------------(9)---7----7-----9---||-(7)------------------(7)---5----5-----7---||-------------------------------------------|
D.S.S. al Dbl. Coda 7/4|----------------------------------------------------------||----------------------------------------------------------||-13--x-9-13-11-x-9-11-13-9-x-13-14-9-x-14-16--x-13-16-----||----------------------------------------------------------||----------------------------------------------------------||----------------------------------------------------------|
|
|----------------------------------------------------------||----------------------------------------------------------||-(9)--------------------------------------(9)-------------||-(9)--------------------------------------(9)-------------||-(7)--------------------------------------(7)-------------||----------------------------------------------------------|
&& 4/4 Gtr I|------------------||---------------|----------------|----------------||------------------||---------------|----------------|----------------||-x-5-x------5-5s7-||---------------|----------------|-5-7--7-x-x-5---||-x-5-x------5-5s7-||-5s7--7-x-x-5--|-(5)----5-5-5---|-5-7--7-x-x-5---||-x-3-x------3-3s5-||-5s7--7-x-x-5--|-(5)----5-5-5---|-3-5--5-x-x-3---||------------------||-3s5--5-x-x-3--|-(3)----3-3-3---|----------------|
|
| Gtr II|------------------||---------------|----------------|----------------||------------------||------------3--|-(3)------------|----------------||-7-5----(5)-5-5s7-||------------0--|-(0)----0h2-2p0-|-5s7--7-----5---||-7-5----(5)-5-5s7-||-5s7--7-----0--|-(0)----0h2-2p0-|-5s7--7-----5---||-5-3----(3)-3-3s5-||-5s7--7--------|----------------|-3s5--5-----3---||------------------||-3s5--5-----3--|-(3)------------|----------------|
|----------------|----------------|-----------------|----------------||----------------|-------------3--|-(3)-----3-----x-|----------------||-(5)----5s7-7s5-|-------------0--|-(0)-----0-----x-|-7--7-5-(5)--7--||-(5)----5s7-7s5-|-5s7---x-----0--|-(0)-----0-7-7-x-|-7--7-5-(5)--7--||-(3)----3s5-5s3-|-5s7---x--------|-----------7-7---|-5--5-3-(3)--5--||----------------|-3s5-x-x-x-x-3--|-(3)-----3-5-5-x-|----------------|
|
|----------------|----------------|-----------------|----------------||----------------|----------------|-----------------|----------------||-(5)----5s7-7s5-|----------------|-------0-0h2-2p0-|-7--7-5-(5)--7--||-(5)----5s7-7s5-|-5s7---7-----5--|-(5)---0-0h2-2p0-|-7--7-5-(5)--7--||-(3)----3s5-5s3-|-5s7---7-----5--|-(5)-------------|-5--5-3-(3)--5--||----------------|-3s5---5-----3--|-(3)-------------|----------------|
Outro ~~~~~~~~~ ~~~~|------------------|--------------------------|----------------------------||------------------|-12b13---12---(12)----10--|-(10)-------8---------------||-7-5----(5)-5-5s7-|--------------------9-----|--------7s9---9s7p5-7p5-9-5-||-7-5----(5)-5-5s7-|--------------------------|----------------------------||-5-3----(3)-3-3s5-|--------------------------|----------------------------||------------------|--------------------------|----------------------------|
|
|------------------|--------------------------|----------------------------||------------------|--3-----------------------|----------------------------||-7-5--5-(5)-5-5s7-|--0-----------------------|----------------------------||-7-5--5-(5)-5-5s7-|--0----7----7----------5--|--(5)-------5s==7---7s==5---||-5-3--3-(3)-3-3s5-|-------7----7----------5--|--(5)-------5s==7---7s==5---||------------------|--3----5----5----------3--|--(3)-------3s==5---5s==3---|
~ ~~~~~~~~~~~~~~~~~|-----------------|---------------------------|---------------------||--------------7--|-(7)---7-7-----------------|---------------------||-7----5-(5)---7--|-(7)-------7p5---7p5-------|-5-------------------||------------7----|---------------7-----7-5---|---7---(7)-7-(7)--7--||-----------------|-------------------------7-|---------------------||-----------------|---------------------------|---------------------|
|
|-----------------|---------------------------|---------------------||-----------------|---------------------------|---------------------||-5-7--7-------5--|-(5)-------5s==7---7s==5---|---------------------||-5-7--7-------5--|-(5)-------5s==7---7s==5---|-5---7-----7------5--||-3-5--5-------3--|-(3)-------3s==5---5s==3---|-5---7-----7------5--||-----------------|---------------------------|-3---5-----5------3--|
.5|-----------------------------|---------------------------------17-17-||-------/17-22-17-22b25-(22)--|-(22)--22b25-22-(22)----------17-------||-----------------------------|------------------------19b21----------||-(7)-------------------------|---------------------------------------||-----------------------------|---------------------------------------||-----------------------------|---------------------------------------|
|
|-----------------------------|---------------------------------------||-----------------------------|---------------------------------------||-----------------------------|---7----7-----5--(5)-----7-------------||-(5)--------5s====7------7s5-|---7----7-----5--(5)-----7-------------||-(5)--------5s====7------7s5-|---5----5-----3--(3)-----5-------------||-(3)--------3s====5------5s3-|---------------------------------------|
|------------17------------------------------------||-20b22-(20)-----20-17----17-----------------------||----------------------19-----19-17----19p17-------||-----------------------------------19-------19-17-||--------------------------------------------------||--------------------------------------------------|
|
|--------------------------------------------------||--------------------------------------------------||--7------5--(5)----------(5)-----5-----5-----7----||--7------5--(5)----------(5)-----5-----5-----7----||--5------3--(3)----------(3)-----3-----3-----5----||--------------------------------------------------|
~~~~~~~~~~~~~~~~|-------------------------||-17----------------------||-------------------------||----19---(19)---(19)-----||-------------------------||-------------------------|
|
|-------------------------||-------------------------||-------------------------||--5----7------7-------5--||--5----7------7-------5--||--3----5------5-------3--|
~~ ~~|-------------------------------------|----------------------||-------------------------------------|----------------------||-------------------------------------|----------------------||-(19)--20b21-20-17-20b21-19-17-19p17-|-19----17-(17)-19-19--||-------------------------------------|----------------------||-------------------------------------|----------------------|
|
|-------------------------------------|----------------------||-------------------------------------|----------------------||-------------------------------------|--5-7---7----------5--||---5----------------5s====7--7s=5----|--5-7---7----------5--||---5----------------5s====7--7s=5----|--3-5---5----------3--||---3----------------3s====5--5s=3----|----------------------|
~~~|--------------------------|----------------------------------------------||--------------------------|----------------------------------------------||--------------------------|-17----------------------------------------17-||-19-----19-17-19p17-19-17-|----19-17----19-17-------------------17-19----||--------------------------|----------19-------19-17-15-15-17s19----------||--------------------------|----------------------------------------------|
|
|--------------------------|----------------------------------------------||--------------------------|----------------------------------------------||-(5)-----5s=7--7s====5----|----------------------------------------------||-(5)-----5s=7--7s====5----|--5-----7-----7-----7-----------5-------------||-(3)-----3s=5--5s====3----|--5-----7-----7-----7-----------5-------------||--------------------------|--3-----5-----5-----5-----------3-------------|
|---------------------------------------------------||---------------------------------------------------||-19-----17----17s14----14--------------------------||-----19----17-------17----17s14-17s14-12-14-12s10--||---------------------------------------------------||---------------------------------------------------|
|
|---------------------------------------------------||---------------------------------------------------||---------------------------------------------------||-(5)-----------------------5s====7-----7s====5-----||-(5)-----------------------5s====7-----7s====5-----||-(3)-----------------------3s====5-----5s====3-----|
~~|------------------------------------------*||------------------------------------------*||--------------------------------14----14--*||-12p10----10-12p10----10-12s=14----14-----*||-------12----------12---------------------*||------------------------------------------*|
|
|------------------------------------------*||------------------------------------------*||--7-----------7-----5----(5)-----------7--*||--7-----------7-----5----(5)-----------7--*||--5-----------5-----3----(3)-----------5--*|
Its long but try it, its fun!
Tap to rate this tab
 
# A B C D E F G H I J K L M N O P Q R S T U V W X Y Z