Brooks Garth - Thunder Rolls tab

#

Date: Sat, 26 Oct 1996 14:19:22 -0400
From: Mutti 
Subject: OLGA and CowPie TABS
 
The Thunder Rolls
Garth Brooks


I TABed out all of the slide work for the song in standard tunning.  I believe
it was recorded with a guitar in open-G.  All of the TABs follow the line
infront of it, they are not played together, some however carry into the next
line.

Any questions or comments, please E-Mail me,
(NMutti@Student.Umass.Edu)

For other songs, visit my WEB Page,
(HTTP://www-vms.oit.umass.edu/~nmutti)



intro Dm (Just Pick It)

 
Dm                          Bb
Three-thirty in the morning, not a soul in sight

A                                                         Dm
The city's lookin' like a ghost town on a moonless summer night

Dm                                      Bb
Raindrops on the windshield, there's a storm moving in

A                                                          Dm
He's headin' back from somewhere that he never should have been

                       C    C/B  A                          Dm
And the thunder rolls,               and the thunder rolls


W/Slide *FeedBack*|-------------|---------------------------------|-------------|---------------------------------|-------------|-7--------(7)\\------------------|-------5//7--|-7--------(7)\\------------------|-------------|---------------------------------|-------------|---------------------------------
Every light is burnin', in a house across town She's pacin' by the telephone in her faded flannel gown
|-----------------|-----------------------------|-----------------|-----------------------------|-----9/10\\\\\\9-|--5//7---(7)~~~~~~~~~~-------|-----------------|-----------------------------|-----------------|-----------------------------|-----------------|-----------------------------
Askin' for a miracle, hopin' she's not right Prayin' it's the weather that's kept him out all night
|-----------------------------------------------|-----------------------------------------------|-----------7\\\\\\------5----------------------|---5/7------------\\\\\\5----------------------|-----------------------------------------------|-----------------------------------------------
C C/B A Dm C Dm And the thunder rolls, and the thunder rolls CHORUS Bb C Dm C Dm And the thunder rolls and the lightnin' strikes Bb C A G A Another love grows cold on a sleepless night
|-----------------------------------------------|--------------12/14----------------------------|-----12/14-----------12/14~~~~~----------------|-----------------------------------------------|-----------------------------------------------|-----------------------------------------------
Bb C Dm C Dm As the storm blows on out of control Bb C Dm Deep in her heart the thunder rolls
|-10~~~~~~~~~~~~~----------|--------------------|--------------------------|--------------------|-------------------10\\\9-|--5////7------------|------------------------- |--------------------|--------------------------|--------------------|--------------------------|--------------------
She's waitin' by the window when he pulls into the drive She rushes out to hold him thankful he's alive
|-----------------------------------------------|--10----(10)\\\\\-3----------------------------|-----------------------------------------------|-----------------------------------------------|-----------------------------------------------|-----------------------------------------------
But on the wind and rain a strange new perfume blows And the lightnin' flashes in her eyes and he knows that she knows And the thunder rolls,
|-----------------------------------------------|-----------------------------------------------|--5-------4/5---4------2-----------------------|-----------------------------------------------|-----------------------------------------------|-----------------------------------------------and the thunder rolls
|-------------------6\-------------|------------|---------------------\5-----------|------------|--7----5---7-------------7---5~~~-|---7--7--7--|--7----5---7----------------------|---7--7--7--|----------------------------------|------------|----------------------------------|------------
CHORUS Bb C Dm C Dm And the thunder rolls and the lightnin' strikes
|-9/10---12/13---10-----------------------------|----------------10-----------------------------|-----------------------------------------------|-----------------------------------------------|-----------------------------------------------|-----------------------------------------------
Bb C A G A Another love grows cold on a sleepless night
|-10/12-----------------------------------------|--------13/14----------------------------------|---------------14~~~~--------------------------|-----------------------------------------------|-----------------------------------------------|-----------------------------------------------
Bb C Dm C Dm As the storm blows on out of control
|--/17------------------------------------------|-------17/18-----------------------------------|--------------19~~~~~--------------------------|-----------------------------------------------|-----------------------------------------------|-----------------------------------------------
Bb C Dm Deep in her heart the thunder rolls
OUTRO|-10~~~~~~~~~~~~~~~~~~~~~~~---------------------|-------------------------------10--------------|-------------------------------------5/7-------|-----------------------------------------------|-----------------------------------------------|-----------------------------------------------
|---------------------------------8/10----------|------------------------8/10-------------------|--------------7~~~~~---------------------------|--5/////7--------------------------------------|-----------------------------------------------|-----------------------------------------------
|---(10)\8\5-----------|-----13-----(13)\10-----|-----------5/6--------|------------------------|---------------7~~~~--|------------------------|----------------------|------------------------|----------------------|------------------------|----------------------|------------------------
chords used: E A D G B e Dm x 5 7 7 6 5 Bb x 1 3 3 1 1 A x 0 2 2 0 0 C x 3 2 0 1 0 C/B x 2 2 0 1 0 G 3 5 5 4 3 3 NMUTTI@STUDENT.UMASS.EDU
Tap to rate this tab
 
# A B C D E F G H I J K L M N O P Q R S T U V W X Y Z