Bruce Dickinson - Hell On Wheels tab

Bruce Dickenson
Hell On Wheels

E||------------------------|--------------------------|------------------------| B||------------------------|--------------------------|------------------------| G||------------------------|--------------------------|------------------------| D||--7------4-4-5------4-4-|--5------4-4-5--x-x-x-7---|--7------4-4-5------4-4-| A||--7------4-4-5------4-4-|--5------4-4-5--x-x-x-7---|--7------4-4-5------4-4-| E||--5------2-2-3------2-2-|--3------2-2-3--x-x-x-5---|--5------2-2-3------2-2-|
--------------------------|------------------------|--------------------------| --------------------------|------------------------|--------------------------| --------------------------|------------------------|--------------------------| --5------4-4-5--x-x-x-7---|--7------4-4-5------4-4-|--5------4-4-5--x-x-x-7---| --5------4-4-5--x-x-x-7---|--7------4-4-5------4-4-|--5------4-4-5--x-x-x-7---| --3------2-2-3--x-x-x-5---|--5------2-2-3------2-2-|--3------2-2-3--x-x-x-5---|
------------------------|--------------------------||-------------------------| ------------------------|--------------------------||-------------------------| ------------------------|--------------------------||*------------------------| --7------4-4-5------4-4-|--5------4-4-5--x-x-x-7---||*--7------4-4-5------4-4-| --7------4-4-5------4-4-|--5------4-4-5--x-x-x-7---||---7------4-4-5------4-4-| --5------2-2-3------2-2-|--3------2-2-3--x-x-x-5---||---5------2-2-3------2-2-|
--------------------------|------------------------| --------------------------|------------------------| --------------------------|------------------------| --5------4-4-5--x-x-x-7---|--7------4-4-5------4-4-| --5------4-4-5--x-x-x-7---|--7------4-4-5------4-4-| --3------2-2-3--x-x-x-5---|--5------2-2-3------2-2-|
---------------------------||-------------------------| ---------------------------||-------------------------| --------------------------*||--7--------x-x-12--12----| --5------4-4-5--x-x-x-7---*||--7--------x-x-12--12----| --5------4-4-5--x-x-x-7----||--5--------x-x-10--10----| --3------2-2-3--x-x-x-5----||-------------------------|
--------------------------|--------------------------| --------------------------|--------------------------| --5--5------x-x-7--7------|--7--7------x-x-12--12----| --5--5------x-x-7--7------|--7--7------x-x-12--12----| --3--3------x-x-5--5--x-x-|--5--5------x-x-10--10----| --------------------------|--------------------------|
--------------------------|--------------------------| --------------------------|--------------------------| --5--5------x-x-7--7------|--7--7------x-x-12--12----| --5--5------x-x-7--7------|--7--7------x-x-12--12----| --3--3------x-x-5--5--x-x-|--5--5------x-x-10--10----| --------------------------|--------------------------|
--------------------------|--------------------------|-----------------------| --------------------------|--------------------------|-----------------------| --5--5------x-x-7--7------|--7--7------x-x-12--12----|--5--5----5----7--7----| --5--5------x-x-7--7------|--7--7------x-x-12--12----|--5--5----5----7--7----| --3--3------x-x-5--5--x-x-|--5--5------x-x-10--10----|--3--3----3----5--5----| --------------------------|--------------------------|-----------------------|
|-------------------------|--------------------------|------------------------| |-------------------------|--------------------------|------------------------| |*------------------------|--------------------------|------------------------| |*--7------4-4-5------4-4-|--5------4-4-5--x-x-x-7---|--7------4-4-5------4-4-| |---7------4-4-5------4-4-|--5------4-4-5--x-x-x-7---|--7------4-4-5------4-4-| |---5------2-2-3------2-2-|--3------2-2-3--x-x-x-5---|--5------2-2-3------2-2-|
---------------------------||------------------|-----------------------| ---------------------------||------------------|-----------------------| --------------------------*||------------------|------------4~-4-2-----| --5------4-4-5--x-x-x-7---*||------------------|-------------------4-2~| --5------4-4-5--x-x-x-7----||------------------|-----------------------| --3------2-2-3--x-x-x-5----||------------------|-----------------------|
------------------|------------------|------------------| ------------------|------------------|------------------| ------------------|------------------|------------------| ------------------|------------------|------------------| ------------------|------------------|------------------| ------------------|------------------|------------------|
-----------------------|------------------|------------------| -----------------------|------------------|------------------| ------------4~-4-2-----|------------------|------------------| -------------------4-2~|------------------|------------------| -----------------------|------------------|------------------| -----------------------|------------------|------------------|
--------------------------------------------| ------------10~-----10-10----10-10----10-10-| --12~---12~-----12b-------12b------12-------| --------------------------------------------| --------------------------------------------| --------------------------------------------|
-------------------------------------------|--------------------------------| -------------------------------------------|--10-10------10------10---------| --12b-12p10--------------------------------|--10-10------10------10---12~---| ------------12-10p8------------7-----------|----------12------12------------| --------------------10-8~-10~----10p8------|--------------------------------| --------------------------------------10p8~|--------------------------------|
-----10-----10-----10~----------------| -----10-----10--------13~--13~13~-13~-| --12~----12~---12~--------------------| --------------------------------------| --------------------------------------| --------------------------------------|
-----------10----------10-----------10--------| --13~---13b---13~13-13~---13~13~-13----13~-13~| ----------------------------------------------| ----------------------------------------------| ----------------------------------------------| ----------------------------------------------|
--13~---13p12-------------------------------| --------------15----15-13-12----------------| -----------------14----------14-13-12-------| --------------------------------------15-12-| --------------------------------------------| --------------------------------------------|
----------------------------------------------| ----------------------------------------------| --12-10h11----12-10h11----12-10h11----10------| -----------12----------12----------12-----12~-| ----------------------------------------------| ----------------------------------------------|
----------------------------------------------|------------------| -----12/----10--------------------------------|------------------| ----------------------12-10-11----------------|------------------| --12-----12/10--10~12----------12-11-10-------|------------------| ----------------------------------------12-11~|------------------| ----------------------------------------------|------------------|
-------------------|------------------|--15~---15~---15~---15~---| -------------------|------------------|--------------------------| -------------------|------------------|--------------------------| -------------------|------------------|--------------------------| --x----------------|------------------|--------------------------| -------------------|------------------|--------------------------|
----------------------|--------------22~---22~-|--22~---------------| ----------13~---13~---|--13~-------------------|--------------------| ----------------------|------------------------|--------------------| ----------------------|------------------------|--------------------| ----------------------|------------------------|--------------------| ----------------------|------------------------|--------------------|
------------------| ------------------| ------------------| ------------------| ------------------| ------------------|
--13p10----------10-13p10----------10-13p10----------10-13p10----------10-| --------13-10-13----------13-10-13----------13-10-13----------13-10-13----| --------------------------------------------------------------------------| --------------------------------------------------------------------------| --------------------------------------------------------------------------| --------------------------------------------------------------------------|
--13p10----------10-13p10----------10-13p10----------10-13~---| --------13-10-13----------13-10-13----------13-10-13----------| --------------------------------------------------------------| --------------------------------------------------------------| --------------------------------------------------------------| --------------------------------------------------------------|
--13~13-10----------10~-----------------| -----------13----10-----13~-13~-13~-13~-| --------------12~-----------------------| ----------------------------------------| ----------------------------------------| ----------------------------------------|
----------------------------------------| --13~-13-10-----------------------------| ------------12-10-11----10~-10--10~-10~-| ---------------------12-----------------| ----------------------------------------| ----------------------------------------|
------10-10-10-10-10--------------------------------------| --13~-----------------------------------------------------| ----------------------14p12h14p12h14p10h14p10-------------| ----------------------------------------------14p10h14p10-| ----------------------------------------------------------| ----------------------------------------------------------|
---------------------------------| ---------------------------------| ---------------------12~-12~-10~-| --xt10---------------------------| ---------------------------------| -------10--5~-3~-10~-------------|
--13p10h13----10---------------------------------------------------| -----------13----13p10h13----10------------------------------------| --------------------------12----12-10h12p10----12------------------| --------------------------------------------12----12p10-10~--12p10-| -------------------------------------------------------------------| -------------------------------------------------------------------|
------------------------------|----------------------| --------------13~-----13~-10~-|--13~-------13~-------| --12~-12~-10~-----------------|----------------------| ------------------------------|----------------------| ------------------------------|----------------------| ------------------------------|----------------------|
----------------------------|------------------|| ----------------------------|------------------|| ----------------------------|------------------|| ----------------------------|------------------|| ----------x---x---x---x~----|------------------|| ----------10--10--10--10~---|------------------||
Tap to rate this tab
 
# A B C D E F G H I J K L M N O P Q R S T U V W X Y Z