Brunch - Town Drunk tab

#----------------------------------PLEASE NOTE---------------------------------#
#This file is the author's own work and represents their interpretation of the #
#song. You may only use this file for private study, scholarship, or research. #
#------------------------------------------------------------------------------#

TOWN DRUNK
As recorded by Brunch
(From the 2009 Album PURPLE DRANK STRIKES BACK: PART IV)


Transcribed by Tom Brown

Words by M. Smith 
Music by T. Brown, M. Smith

 

Guitar (D A D G B E) - 'Tom'


|-----------------|-----------------|-----------------|-----------------||-----------------|-----------------|-----------------|-----------------||-----------------|-----------------|-----------------|-----------------||-0-0-7-7-9-9-5-5-|-0-0-7-7-9-9-5-5-|-0-0-7-7-9-9-5-5-|-7-7-7-7-7-7-7-7-||-0-0-7-7-9-9-5-5-|-0-0-7-7-9-9-5-5-|-0-0-7-7-9-9-5-5-|-----------------||-0-0-7-7-9-9-5-5-|-0-0-7-7-9-9-5-5-|-0-0-7-7-9-9-5-5-|-----------------|
|-----------------|-----------------|-----------------|-----------------||-----------------|-----------------|-----------------|-----------------||-----------------|-----------------|-----------------|-----------------||-0-0-7-7-9-9-5-5-|-0-0-7-7-9-9-5-5-|-0-0-7-7-9-9-5-5-|-0-0-7-7-9-9-5-5-||-0-0-7-7-9-9-5-5-|-0-0-7-7-9-9-5-5-|-0-0-7-7-9-9-5-5-|-0-0-7-7-9-9-5-5-||-0-0-7-7-9-9-5-5-|-0-0-7-7-9-9-5-5-|-0-0-7-7-9-9-5-5-|-0-0-7-7-9-9-5-5-|
|-----------------|-----------------|-----------------|-----------------||-----------------|-----------------|-----------------|-----------------||-----------------|-----------------|-----------------|-----------------||-0-0-7-7-9-9-5-5-|-0-0-7-7-9-9-5-5-|-0-0-7-7-9-9-5-5-|-0-0-7-7-9-9-5-5-||-0-0-7-7-9-9-5-5-|-0-0-7-7-9-9-5-5-|-0-0-7-7-9-9-5-5-|-0-0-7-7-9-9-5-5-||-0-0-7-7-9-9-5-5-|-0-0-7-7-9-9-5-5-|-0-0-7-7-9-9-5-5-|-0-0-7-7-9-9-5-5-|
|----------------------------------------||----------------------------------------||----------------------------------------||-0-0-0-0-12-12-12-12-12-9-9-9-9-5-5-5-5-||-0-0-0-0-12-12-12-12-12-9-9-9-9-5-5-5-5-||-0-0-0-0-12-12-12-12-12-9-9-9-9-5-5-5-5-|
|------------------------|------------------||------------------------|------------------||------------------------|------------------||-0-0-0-0-12-12-12-12-12-|-9-9-9-9-7-7-7-7--||-0-0-0-0-12-12-12-12-12-|-9-9-9-9-7-7-7-7--||-0-0-0-0-12-12-12-12-12-|-9-9-9-9-7-7-7-7--|
|------------------------|-----------------||------------------------|-----------------||------------------------|-----------------||-0-0-0-0-12-12-12-12-12-|-7-7-7-7-5-5-5-5-||-0-0-0-0-12-12-12-12-12-|-7-7-7-7-5-5-5-5-||-0-0-0-0-12-12-12-12-12-|-7-7-7-7-5-5-5-5-|
|------------------------|-----------------||------------------------|-----------------||------------------------|-----------------||-0-0-0-0-12-12-12-12-12-|-5-5-5-5-7-7-7-7-||-0-0-0-0-12-12-12-12-12-|-5-5-5-5-7-7-7-7-||-0-0-0-0-12-12-12-12-12-|-5-5-5-5-7-7-7-7-|
|-----------------|-----------------|-----------------|-----------------||-----------------|-----------------|-----------------|-----------------||-----------------|-----------------|-----------------|-----------------||-0-0-7-7-9-9-5-5-|-0-0-7-7-9-9-5-5-|-0-0-7-7-9-9-5-5-|-0-0-7-7-9-9-5-5-||-0-0-7-7-9-9-5-5-|-0-0-7-7-9-9-5-5-|-0-0-7-7-9-9-5-5-|-0-0-7-7-9-9-5-5-||-0-0-7-7-9-9-5-5-|-0-0-7-7-9-9-5-5-|-0-0-7-7-9-9-5-5-|-0-0-7-7-9-9-5-5-|
|-----------------|-----------------|-----------------|-----------------||-----------------|-----------------|-----------------|-----------------||-----------------|-----------------|-----------------|-----------------||-0-0-7-7-9-9-5-5-|-0-0-7-7-9-9-5-5-|-0-0-7-7-9-9-5-5-|-0-0-7-7-9-9-5-5-||-0-0-7-7-9-9-5-5-|-0-0-7-7-9-9-5-5-|-0-0-7-7-9-9-5-5-|-0-0-7-7-9-9-5-5-||-0-0-7-7-9-9-5-5-|-0-0-7-7-9-9-5-5-|-0-0-7-7-9-9-5-5-|-0-0-7-7-9-9-5-5-|
|-----------------|-----------------|-----------------|-----------------||-----------------|-----------------|-----------------|-----------------||-----------------|-----------------|-----------------|-----------------||-0-0-7-7-9-9-5-5-|-0-0-7-7-9-9-5-5-|-0-0-7-7-9-9-5-5-|-0-0-7-7-9-9-5-5-||-0-0-7-7-9-9-5-5-|-0-0-7-7-9-9-5-5-|-0-0-7-7-9-9-5-5-|-0-0-7-7-9-9-5-5-||-0-0-7-7-9-9-5-5-|-0-0-7-7-9-9-5-5-|-0-0-7-7-9-9-5-5-|-0-0-7-7-9-9-5-5-|
|------------------------|-----------------||------------------------|-----------------||------------------------|-----------------||-0-0-0-0-12-12-12-12-12-|-9-9-9-9-5-5-5-5-||-0-0-0-0-12-12-12-12-12-|-9-9-9-9-5-5-5-5-||-0-0-0-0-12-12-12-12-12-|-9-9-9-9-5-5-5-5-|
|------------------------|-----------------||------------------------|-----------------||------------------------|-----------------||-0-0-0-0-12-12-12-12-12-|-9-9-9-9-7-7-7-7-||-0-0-0-0-12-12-12-12-12-|-9-9-9-9-7-7-7-7-||-0-0-0-0-12-12-12-12-12-|-9-9-9-9-7-7-7-7-|
|------------------------|-----------------||------------------------|-----------------||------------------------|-----------------||-0-0-0-0-12-12-12-12-12-|-7-7-7-7-5-5-5-5-||-0-0-0-0-12-12-12-12-12-|-7-7-7-7-5-5-5-5-||-0-0-0-0-12-12-12-12-12-|-7-7-7-7-5-5-5-5-|
|------------------------|-----------------||------------------------|-----------------||------------------------|-----------------||-0-0-0-0-12-12-12-12-12-|-5-5-5-5-7-7-7-7-||-0-0-0-0-12-12-12-12-12-|-5-5-5-5-7-7-7-7-||-0-0-0-0-12-12-12-12-12-|-5-5-5-5-7-7-7-7-|
|-----------------|-----------------|-----------------|-----------------||-----------------|-----------------|-----------------|-----------------||-----------------|-----------------|-----------------|-----------------||-0-0-7-7-9-9-5-5-|-0-0-7-7-9-9-5-5-|-0-0-7-7-9-9-5-5-|-0-0-7-7-9-9-5-5-||-0-0-7-7-9-9-5-5-|-0-0-7-7-9-9-5-5-|-0-0-7-7-9-9-5-5-|-0-0-7-7-9-9-5-5-||-0-0-7-7-9-9-5-5-|-0-0-7-7-9-9-5-5-|-0-0-7-7-9-9-5-5-|-0-0-7-7-9-9-5-5-|
|-----------------|---------------------||-----------------|---------------------||-----------------|---------------------||-2-2-2-2-2-2-2-2-|-/5-5-5-5-7-7-7-7----||-2-2-2-2-2-2-2-2-|-/5-5-5-5-7-7-7-7----||-2-2-2-2-2-2-2-2-|-/5-5-5-5-7-7-7-7----|
|------------------------|-----------------||------------------------|-----------------||------------------------|-----------------||-0-0-0-0-12-12-12-12-12-|-9-9-9-9-5-5-5-5-||-0-0-0-0-12-12-12-12-12-|-9-9-9-9-5-5-5-5-||-0-0-0-0-12-12-12-12-12-|-9-9-9-9-5-5-5-5-|
|------------------------|-----------------||------------------------|-----------------||------------------------|-----------------||-0-0-0-0-12-12-12-12-12-|-9-9-9-9-7-7-7-7-||-0-0-0-0-12-12-12-12-12-|-9-9-9-9-7-7-7-7-||-0-0-0-0-12-12-12-12-12-|-9-9-9-9-7-7-7-7-|
|------------------------|-----------------||------------------------|-----------------||------------------------|-----------------||-0-0-0-0-12-12-12-12-12-|-7-7-7-7-5-5-5-5-||-0-0-0-0-12-12-12-12-12-|-7-7-7-7-5-5-5-5-||-0-0-0-0-12-12-12-12-12-|-7-7-7-7-5-5-5-5-|
|------------------------|-----------------||------------------------|-----------------||------------------------|-----------------||-0-0-0-0-12-12-12-12-12-|-5-5-5-5-7-7-7-7-||-0-0-0-0-12-12-12-12-12-|-5-5-5-5-7-7-7-7-||-0-0-0-0-12-12-12-12-12-|-5-5-5-5-7-7-7-7-|
|-----------------|-----------------|-----------------|-----------------||-----------------|-----------------|-----------------|-----------------||-----------------|-----------------|-----------------|-----------------||-0-0-7-7-9-9-5-5-|-0-0-7-7-9-9-5-5-|-0-0-7-7-9-9-5-5-|-0-0-7-7-9-9-5-5-||-0-0-7-7-9-9-5-5-|-0-0-7-7-9-9-5-5-|-0-0-7-7-9-9-5-5-|-0-0-7-7-9-9-5-5-||-0-0-7-7-9-9-5-5-|-0-0-7-7-9-9-5-5-|-0-0-7-7-9-9-5-5-|-0-0-7-7-9-9-5-5-|
|------||------||------||-0----||-0----||-0----|
Tap to rate this tab
 
# A B C D E F G H I J K L M N O P Q R S T U V W X Y Z