Btr – Elmaz I Styklo tab

                                Elmaz i styklo


                                                                          by BTR


E||------------------|--0----0---0-0--2--2--2--|--0----0---0-0-0-0--0----|B||------------------|--0----0---0-0--3--3--3--|--1----1---1-3-3-3--3----|G||------------------|--0----0---0-0--2--2--2--|--0----2---2-0-0-0--0----|D||------------------|--2----2---2-2--0--0--0--|--2----2---2-4-4-4--4----|A||------------------|--2----2-----------------|--0----------------------|E||------------------|--0----0-----------------|-------------------------|
--0----0---0-0--2--2--2--|--0----0---0-0-0-0--0----|--0----0---0-0--2--2--2--|--0----0---0-0--3--3--3--|--1----1---1-3-3-3--3----|--0----0---0-0--3--3--3--|--0----0---0-0--2--2--2--|--0----2---2-0-0-0--0----|--0----0---0-0--2--2--2--|--2----2---2-2--0--0--0--|--2----2---2-4-4-4--4----|--2----2---2-2--0--0--0--|--2----2-----------------|--0----------------------|--2----2-----------------|--0----0-----------------|-------------------------|--0----0-----------------|
--0----0---0-0-0-0--0----|--0----0---0-0--2--2--2--|--0----0---0-0--0--0--0--|--1----1---1-3-3-3--3----|--0----0---0-0--3--3--3--|--1----1---1-1--1--1--1--|--0----2---2-0-0-0--0----|--0----0---0-0--2--2--2--|--0----0---0-0--0--0--0--|--2----2---2-4-4-4--4----|--2----2---2-2--0--0--0--|--2----2---2-2--2--2--2--|--0----------------------|--2----2-----------------|--3----3---3-3--3--3--3--|-------------------------|--0----0-----------------|-------------------------|
--0----0---0-------------|---------------------|--------0-----------2-----|--1----1---1-0--1--3--1--|---------------------|-----------0-----------3--|--0----0---0-0--0--0--2--|---------------------|-----0-----------2--------|--2----2---2-0--------3--|------------------1--|--2-----------0-----------|--0----0-----2--------3--|------------2--4-----|--------------------------|-------------3--------1--|---------------------|--------------------------|
--------------------3-----|--------------------2-----|--0---0---2-------------|--------1--------------0--|--------1--------------4--|--0---0---4-------------|-----0-----0-----0--------|-----0-----0-----2--------|--0---0---2-------------|--------------------------|--------------------------|--2---2---4----------1--|--3-----------------------|--3-----------2-----------|----------2----2--4-----|--------------3-----------|--------------------------|------------------------|
--------0-----------2-----|--------------------3-----|-----------0-----------3--|--------1--------------0--|-----0-----------2--------|-----0-----0-----0--------|--2-----------0-----------|--------------------------|--------------------------|--3-----------------------|--------------------------|--------------3-----------|
--------------------2-----|--0---0---2-------------|-----3--------------2-----|--------1--------------4--|--0---0---4-------------|--------0--------------3--|-----0-----0-----2--------|--0---0---2-------------|-----------0-----2--------|--------------------------|--2---2---4----------1--|--2-----------0-----------|--3-----------2-----------|--2-------2----2--4-----|--------------------------|--------------------------|--0---------------------|--------------------------|
--------------------3-----|--------------------2-----|--0---0---2----------|--------1--------------0--|--------1--------------4--|--0---0---4----------|-----0-----0-----0--------|-----0-----0-----2--------|--0---0---2----------|--------------------------|--------------------------|--2---2---4----------|--3-----------------------|--3-----------2-----------|--2-------2----------|--------------3-----------|--------------------------|--0------------------|
--0---0---0-------------|--------------------------|--------------------------|--0---0---4-------------|--------1-----------1-----|--------3-----------3-----|--0---0---2-------------|-----------2-----2-----2--|-----2-----2-----2-----2--|--2---2---4-------------|-----2--------3-----------|--4-----------3-----------|----------2-------2--3--|--0-----------------------|--------------------------|---------------0--------|--------------------------|--------------------------|
--------------------------|--------------------------|--------1-----------1-----|--------3--------3-----3--|-----------2-----2-----2--|-----2-----2--0-----1-----|-----2--------3-----------|--4-----------------------|--0-----------------------|--------------------------|--------------------------|--------------------------|
--------------------------|--------------------------|--1---1---0----------|--------1-----------1-----|--------3--------3-----3--|--1---1---0----------|-----------2-----2-----2--|-----2-----2--0-----1-----|--2---2---1----------|-----2--------3-----------|--4-----------------------|--3---3---2----------|--0-----------------------|--------------------------|--3---3---2----------|--------------------------|--------------------------|--1---1---0----------|
--1---1---0-------0--2--|--3-----0-----2-----2-----|--------------------3-----|--1---1---4----3--------|-----------0-----------3--|--------1--------------0--|--2---2---4-------------|-----0-----------2--------|-----0-----0-----0--------|--1---1---4-------------|--2-----------------------|--------------------------|----------2-------------|--------------------------|--3-----------------------|------------------------|--------------------------|--------------3-----------|
--------------------2-----|--0---0---2-------------|-----3--------------2-----|--------1--------------4--|--0---0---4-------------|--------0--------------3--|-----0-----0-----2--------|--0---0---2-------------|-----------0-----2--------|--------------------------|--2---2---4----------1--|--2-----------0-----------|--3-----------2-----------|--2-------2----2--4-----|--------------------------|--------------------------|--0---------------------|--------------------------|
--------------------3-----|--------------------2-----|--0---0---2----------|--------1--------------0--|--------1--------------4--|--0---0---4----------|-----0-----0-----0--------|-----0-----0-----2--------|--0---0---2----------|--------------------------|--------------------------|--2---2---4----------|--3-----------------------|--3-----------2-----------|--2-------2----------|--------------3-----------|--------------------------|--0------------------|
--0---0---2-------------|--------------------------|--------------------------|--0---0---4-------------|--------1-----------1-----|--------3-----------3-----|--0---0---2-------------|-----------2-----2-----2--|-----2-----2-----2-----2--|--2---2---4-------------|-----2--------3-----------|--4-----------3-----------|----------2-------2--3--|--0-----------------------|--------------------------|---------------0--------|--------------------------|--------------------------|
--------------------------|--------------------------|--1----------------|--------1-----------1-----|--------3--------3-----3--|--3----------------|-----------2-----2-----2--|-----2-----2--0-----1-----|--2----------------|-----2--------3-----------|--4-----------------------|--0----------------|--0-----------------------|--------------------------|-------------------|--------------------------|--------------------------|-------------------|
--5--5--5--5--5--5--5--5--|--4--4-4-4-4-4-4-4--------|--0----0---0--------3----|--5--5--5--5--5--5--5--5--|--5--5-5-5-5-5-5-5--------|--1----1---1-3-3-3--3----|--4--4--4--4--4--4--4--4--|--4--4-4-4-4-4-4-4--------|--2----2---2-0-0-0--0----|--------------------------|--------------------------|--2----2---2-0-0-0--0----|--------------------------|--------------------------|--0----------2------2----|--------------------------|--------------------------|-------------3------3----|
--1----1---0-0-0-0--0--0--|--0----0---0--------3----|--1----1---0-0-0-0--0--0--|--3----3---3-3-3-3--3--0--|--1----1---1-3-3-3--3----|--3----3---3-3-3-3--3--0--|--2----2---0-0-0-0--0--0--|--2----2---2-0-0-0--0----|--2----2---0-0-0-0--0--0--|--0----0---------2--2--2--|--2----2---2-0-0-0--0----|--0----0---------2--2--2--|-----------------2--------|--0----------2------2----|-----------------2--------|-----------------0--------|-------------3------3----|-----------------0--------|
--0----0---0--------3----|--1----1---0-0-0-0--0--0--|--1----1---1-3-3-3--3----|--3----3---3-3-3-3--3--0--|--2----2---2-0-0-0--0----|--2----2---0-0-0-0--0--0--|--2----2---2-0-0-0--0----|--0----0---------2--2--2--|--0----------2------2----|-----------------2--------|-------------3------3----|-----------------0--------|
--0----0---0--------3--3-0-|--1----1---1--1-1-1-1-1-1-1-|--1----1---1-3-3-3--3--3-3-|--1----1---1--1-1-1-1-1-1-1-|--2----2---2-0-0-0--0------|--2----2---2--2-2-2-2-2-2-2-|--2----2---2-0-0-0--0------|--3----3---3--3-3-3-3-3-3-3-|--0----------2------2------|--3-------------------------|-------------3------3------|--1-------------------------|
--0----0---0--------3--0--|--1----1---0-0-0-0--0--0--|--1----1---1-3-3-3--3--3--|--3----3---3-3-3-3--3--0--|--2----2---2-0-0-0--0-----|--2----2---0-0-0-0--0--0--|--2----2---2-0-0-0--0-----|--0----0---------2--2--2--|--0----------2------2-----|-----------------2--------|-------------3------3-----|-----------------0--------|
--0----0---0--------3--0--|--1----1---0-0-0-0--0-0---|--1----1---1-3-3-3--3--3--|--3----3---3-3-3-3--3-3---|--2----2---2-0-0-0--0-----|--2----2---0-0-0-0--0-0---|--2----2---2-0-0-0--0-----|--0----0---------2--------|--0----------2------2-----|-----------------2--------|-------------3------3-----|-----------------0--------|
--0----0---0--------3--0--|--1----1---0-0-0-0--0--0--|--1----1---1-3-3-3--3--3--|--3----3---3-3-3-3--3--0--|--2----2---2-0-0-0--0-----|--2----2---0-0-0-0--0--0--|--2----2---2-0-0-0--0-----|--0----0---------2--2--2--|--0----------2------2-----|-----------------2--------|-------------3------3-----|-----------------0--------|
--0----0---0--------3--3-0-|--1----1----1----1----|--1--1-1-1-1-1-1-1--------|--1----1---1-3-3-3--3--3-3-|--1----1----1----1----|--1--1-1-1-1-1-1-1--------|--2----2---2-0-0-0--0------|--2----2----2----2----|--2--2-2-2-2-2-2-2--------|--2----2---2-0-0-0--0------|--3----3----3----3----|--3--3-3-3-3-3-3-3--------|--0----------2------2------|--3---------3---------|--3--------------3--------|-------------3------3------|--1---------1---------|--1--------------1--------|
--0----0---0--------3----|--1----1---0-0-0-0--0--0--|--0----0---0--------3----|--1----1---1-3-3-3--3----|--3----3---3-3-3-3--3--0--|--1----1---1-3-3-3--3----|--2----2---2-0-0-0--0----|--2----2---0-0-0-0--0--0--|--2----2---2-0-0-0--0----|--2----2---2-0-0-0--0----|--0----0---------2--2--2--|--2----2---2-0-0-0--0----|--0----------2------2----|-----------------2--------|--0----------2------2----|-------------3------3----|-----------------0--------|-------------3------3----|
--1----1---0-0-0-0--0--0--|--0----0---0--------3----|--1----1---0-0-0-0--0--0--|--3----3---3-3-3-3--3--0--|--1----1---1-3-3-3--3----|--3----3---3-3-3-3--3--0--|--2----2---0-0-0-0--0--0--|--0----2---2-0-0-0--0----|--2----2---0-0-0-0--0--0--|--0----0---------2--2--2--|--2----2---2-0-0-0--0----|--0----0---------2--2--2--|-----------------2--------|--0----------2------2----|-----------------2--------|-----------------0--------|-------------3------3----|-----------------0--------|
--0----0---0--------3--3-0-|--1----1---1-0--0--0--0--|--1----1---1-3-3-3--3--3-3-|--3----3---3-3--3--3--3--|--2----2---2-0-0-0--0------|--2----2---2-0--0--0--0--|--2----2---2-0-0-0--0------|--0----------2--2--2--2--|--0----------2------2------|-------------------------|-------------3------3------|-------------------------|
--0--0--0--0--0--0--0--0--|--4--5--4-5-4-5-4--------|--0----0---0--------3----|--3--3--3--3--3--3--3--3--|--5--5--5-5-5-5-5--------|--1----1---1-3-3-3--3----|--0--0--0--0--0--0--0--0--|--4--4--4-4-4-4-4--------|--2----2---2-0-0-0--0----|--2--2--2--2--2--2--2--2--|-------------------------|--2----2---2-0-0-0--0----|--------------------------|-------------------------|--0----------2------2----|--------------------------|-------------------------|-------------3------3----|
--1----1---0-0-0-0--0--0--|--0----0---0--------3----|--1----1---0-0-0-0--0--0--|--3----3---3-3-3-3--3--0--|--1----1---1-3-3-3--3----|--3----3---3-3-3-3--3--0--|--2----2---0-0-0-0--0--0--|--2----2---2-0-0-0--0----|--2----2---0-0-0-0--0--0--|--0----0---------2--2--2--|--2----2---2-0-0-0--0----|--0----0---------2--2--2--|-----------------2--------|--0----------2------2----|-----------------2--------|-----------------0--------|-------------3------3----|-----------------0--------|
--0----0---0--------3----|--1----1---0-0-0-0--0--0--|--1----1---1-3-3-3--3----|--3----3---3-3-3-3--3--0--|--2----2---2-0-0-0--0----|--2----2---0-0-0-0--0--0--|--2----2---2-0-0-0--0----|--0----0---------2--2--2--|--0----------2------2----|-----------------2--------|-------------3------3----|-----------------0--------|
--0----0---0--------3--3-0-|--1----1---1--1-1-1-1-1-1-1-|--1----1---1-3-3-3--3--3-3-|--1----1---1--1-1-1-1-1-1-1-|--2----2---2-0-0-0--0------|--2----2---2--2-2-2-2-2-2-2-|--2----2---2-0-0-0--0------|--3----3---3--3-3-3-3-3-3-3-|--0----------2------2------|--3-------------------------|-------------3------3------|--1-------------------------|
--0----0---0--------3----|--1----1---0-0-0-0--0--0--|--0----0---0--------3----|--1----1---1-3-3-3--3----|--3----3---3-3-3-3--3--0--|--1----1---1-3-3-3--3----|--2----2---2-0-0-0--0----|--2----2---0-0-0-0--0--0--|--2----2---2-0-0-0--0----|--2----2---2-0-0-0--0----|--0----0---------2--2--2--|--2----2---2-0-0-0--0----|--0----------2------2----|-----------------2--------|--0----------2------2----|-------------3------3----|-----------------0--------|-------------3------3----|
--1----1---0-0-0-0--0--0--|--0----0---0--------3----|--1----1---0-0-0-0--0--0--|--3----3---3-3-3-3--3--0--|--1----1---1-3-3-3--3----|--3----3---3-3-3-3--3--0--|--2----2---0-0-0-0--0--0--|--2----2---2-0-0-0--0----|--2----2---0-0-0-0--0--0--|--0----0---------2--2--2--|--2----2---2-0-0-0--0----|--0----0---------2--2--2--|-----------------2--------|--0----------2------2----|-----------------2--------|-----------------0--------|-------------3------3----|-----------------0--------|
--0----0---0--------3--3-0-|--1----1---1-1-1-1--1--1--|--1----1---1-3-3-3--3--3-3-|--1----1---1-1-1-1--1--1--|--2----2---2-0-0-0--0------|--2----2---2-2-2-2--2--2--|--2----2---2-0-0-0--0------|--3----3---3-3-3-3--3--3--|--0----------2------2------|--3----------3------------|-------------3------3------|--1----------1------------|
--1----1---0-0--0--0--0-0-|--1----1---1-1-1-1--1--1-1-|-----1--1-1-1-1---------|--3----3---1-1--3--1--1-3-|--3----3---3-3-3-3--3--3-3-|-----3--3-3-3-3---------|--2----2-----0--0--0------|--3----3---3-3-3-3--3--3-3-|-----3--3-3-3-3---------|--0----0-----2-----2------|--3----3---3-3-3-3--3--3-3-|-----3--3-3-3-3---------|-------------3-----3------|--1----------1-------------|--1---------------------|--------------------------|---------------------------|------------------------|
-------------------|------------------||--0----------------|------------------||--2----------------|------------------||--2----------------|------------------||--0----------------|------------------||-------------------|------------------||
Please rate this tab:
x1.0