Buck 65 - Dang tab

Buck 65 - Dang

Inc. "The Incredible Bongo Band - Let There Be Drums"


Tabbed by S. Smith



Into

N.C.



Verse I

N.C.



Chorus I

|------------------------------------------------------------|------------------------------------------------------------|------------------------------------------------------------|------------------------------------------------------------|----------------1------------------1---1-1-1-1-1-1-1-1-3p1--|-1-1-1-1-1-1-1-1--4-1-1-1-1-1-1-1-1--4--------------------4-
--------------------------------------------| --------------------------------------------| --------------------------------------------| --------------------------------------------| ------------------1-3-3-3-3-3-1-1-1-3p1-----| -1-1-1-1-1-1-1-1-4---------------------4-1--|
Verse II
|-----------------------------||-----------------------------||-----------------------------||-----------------------------||-----------------------------||-2----2-3-----3-4-------4-5--|
Chorus II
|----------------------------------------------------------|----------------------------------------------------------|----------------------------------------------------------|----------------------------------------------------------|----------------6------------------6---6-6-6-6-6-6-6-8p6--|-6-6-6-6-6-6-6-6--9-6-6-6-6-6-6-6-6--9------------------9-
-------------------------------------------| -------------------------------------------| -------------------------------------------| -------------------------------------------| -----------------6-8-8-8-8-8-6-6-6-8p6-----| 6-6-6-6-6-6-6-6-9---------------------9-6--|
Verse III
|------------------------------------------------||------------------------------------------------||------------------------------------------------||------------------------------------------------||------------------------------------------------||-6-7-----------7--8--9--10-11-12-13-14-3-4-5-6--|
Chorus IIII
|-------------------------------------------------------------|-------------------------------------------------------------|-------------------------------------------------------------|-------------------------------------------------------------|----------------7------------------ 7--- 7-7-7-7-7-7-7-9p7---|-7-7-7-7-7-7-7-7--10-7-7-7-7-7-7-7-7--10------------------10-
---------------------------------------------| ---------------------------------------------| ---------------------------------------------| ---------------------------------------------| ----------------- 7-9-9-9-9-9-7-7-7-9p7------| 7-7-7-7-7-7-7-7-10---------------------10-7--|
Ending
|----------------------------------||----------------------------------||----------------------------------||----------------------------------||--------------------------8-------||-7-8-------8-8-8-8-8-8-8-8--11-8--|
Tap to rate this tab
 
# A B C D E F G H I J K L M N O P Q R S T U V W X Y Z