Buckcherry - Lawless And Lulu tab

Lawless And Lulu Complete Score As Recorded By Buckcherry
Words By Joshua Todd Music By Buckcherry


Introduction||------------------------|------------------------|------------------------|||------------------------|---------------------7--|------------------------|||--4--4--4----4--4----4--|----4----4--4--4--4-----|--9--9--9----9--9----9--|||--4--4--4----4--4----4--|----4----4--4--4--4-----|--9--9--9----9--9----9--|||--2--2--2----2--2----2--|----2----2--2--2--2-----|--7--7--7----7--7----7--|||------------------------|------------------------|------------------------|
|-----------------------|------------------------------||-----------------------|------------------------------||----9----9----9--9--9--|--11--11--11----11--11----11--||----9----9----9--9--9--|--11--11--11----11--11----11--||----7----7----7--7--7--|--9---9---9-----9---9-----9---||-----------------------|------------------------------|
|-----------------------------|------------------------|-----------------------||--------------------------2--|------------------------|-----------------------||----11----11--11--11--11-----|--4--4--4----4--4----4--|----4----4----4--4--4--||----11----11--11--11--11-----|--4--4--4----4--4----4--|----4----4----4--4--4--||----9-----9---9---9---9------|--2--2--2----2--2----2--|----2----2----2--2--2--||-----------------------------|------------------------|-----------------------|
With Riff A |------------------------|------------------------|------------------------||------------------------|---------------------7--|------------------------||--4--4--4----4--4----4--|----4----4--4--4--4-----|--9--9--9----9--9----9--||--4--4--4----4--4----4--|----4----4--4--4--4-----|--9--9--9----9--9----9--||--2--2--2----2--2----2--|----2----2--2--2--2-----|--7--7--7----7--7----7--||------------------------|------------------------|------------------------|
|-----------------------|------------------------------||-----------------------|------------------------------||----9----9----9--9--9--|--11--11--11----11--11----11--||----9----9----9--9--9--|--11--11--11----11--11----11--||----7----7----7--7--7--|--9---9---9-----9---9-----9---||-----------------------|------------------------------|
|-----------------------------|------------------------|-----------------------||--------------------------2--|------------------------|-----------------------||----11----11--11--11--11-----|--4--4--4----4--4----4--|----4----4----4--4--4--||----11----11--11--11--11-----|--4--4--4----4--4----4--|----4----4----4--4--4--||----9-----9---9---9---9------|--2--2--2----2--2----2--|----2----2----2--2--2--||-----------------------------|------------------------|-----------------------|
First Verse |------------------------|------------------------|------------------------||------------------------|---------------------7--|------------------------||--4--4--4----4--4----4--|----4----4--4--4--4-----|--9--9--9----9--9----9--||--4--4--4----4--4----4--|----4----4--4--4--4-----|--9--9--9----9--9----9--||--2--2--2----2--2----2--|----2----2--2--2--2-----|--7--7--7----7--7----7--||------------------------|------------------------|------------------------|
|-----------------------|------------------------------||-----------------------|------------------------------||----9----9----9--9--9--|--11--11--11----11--11----11--||----9----9----9--9--9--|--11--11--11----11--11----11--||----7----7----7--7--7--|--9---9---9-----9---9-----9---||-----------------------|------------------------------|
|-----------------------------|------------------------|-----------------------||--------------------------2--|------------------------|-----------------------||----11----11--11--11--11-----|--4--4--4----4--4----4--|----4----4----4--4--4--||----11----11--11--11--11-----|--4--4--4----4--4----4--|----4----4----4--4--4--||----9-----9---9---9---9------|--2--2--2----2--2----2--|----2----2----2--2--2--||-----------------------------|------------------------|-----------------------|
|------------------------|------------------------|------------------------||------------------------|---------------------7--|------------------------||--4--4--4----4--4----4--|----4----4--4--4--4-----|--9--9--9----9--9----9--||--4--4--4----4--4----4--|----4----4--4--4--4-----|--9--9--9----9--9----9--||--2--2--2----2--2----2--|----2----2--2--2--2-----|--7--7--7----7--7----7--||------------------------|------------------------|------------------------|
|-----------------------|------------------------------||-----------------------|------------------------------||----9----9----9--9--9--|--11--11--11----11--11----11--||----9----9----9--9--9--|--11--11--11----11--11----11--||----7----7----7--7--7--|--9---9---9-----9---9-----9---||-----------------------|------------------------------|
Pre Chorus |-----------------------------|------------------------||--------------------------2--|------------------------||----11----11--11--11--11-----|--4--4--4----4--4----4--||----11----11--11--11--11-----|--4--4--4----4--4----4--||----9-----9---9---9---9------|--2--2--2----2--2----2--||-----------------------------|------------------------|
Chorus |--------------------------|--------------------------||--------------------------|--------------------------||--------------------------|--4--4--4--4--4--4--4-----||--------------------------|--4--4--4--4--4--4--4-----||----4--4--4--4--4--4--x-x-|--2--2--2--2--2--2--2--7--||----2--2--2--2--2--2--x-x-|--------------------------|
|--------------------------|--------------------------|-------------------------||-----------------------0--|--------------------------|----------------------0--||-----------------------0--|-----------------------0--|--6--6-----9----9--9--0--||--9--9--9--9--9--9--9-----|-----------------------0--|--6--6-----9----9--9-----||--7--7--7--7--7--7--7-----|--4--4--4--4--4--4--4--0--|--4--4-----7----7--7-----||--0--0--0--0--0--0--0-----|--2--2--2--2--2--2--2-----|--------0----------------|
|--------------------------|--------------------------||--------------------------|--------------------------||--4--4--4--4--4--4--------|-----------------------0--||--4--4--4--4--4--4-----9--|--9--9--9--9--9--9--9--0--||--2--2--2--2--2--2-----7--|--7--7--7--7--7--7--7--0--||--------------------0-----|--0--0--0--0--0--0--0-----|
|--------------------------|------------------------|------------------------||--------------------------|------------------------|------------------------||--------------------------|------------------------|--4--4--4----4--4----4--||--------------------------|-----6/-9--9------9--0--|--4--4--4----4--4----4--||--4--4--4--4--4--4--4--4--|-----4/-7--7------7--0--|--2--2--2----2--2----2--||--2--2--2--2--2--2--2--2--|--0---------------------|------------------------|
Second Verse |-------------------------|------------------------|------------------------||-------------------------|------------------------|---------------------7--||-------------------------|--4--4--4----4--4----4--|----4----4--4--4--4-----||-------------------------|--4--4--4----4--4----4--|----4----4--4--4--4-----||----4--4--4--4--4--4--4--|--2--2--2----2--2----2--|----2----2--2--2--2-----||----2--2--2--2--2--2--2--|------------------------|------------------------|
|------------------------|-----------------------|------------------------------||------------------------|-----------------------|------------------------------||--9--9--9----9--9----9--|----9----9----9--9--9--|--11--11--11----11--11----11--||--9--9--9----9--9----9--|----9----9----9--9--9--|--11--11--11----11--11----11--||--7--7--7----7--7----7--|----7----7----7--7--7--|--9---9---9-----9---9-----9---||------------------------|-----------------------|------------------------------|
With Riff B |-----------------------------|------------------------|-----------------------||--------------------------2--|------------------------|-----------------------||----11----11--11--11--11-----|--4--4--4----4--4----4--|----4----4----4--4--4--||----11----11--11--11--11-----|--4--4--4----4--4----4--|----4----4----4--4--4--||----9-----9---9---9---9------|--2--2--2----2--2----2--|----2----2----2--2--2--||-----------------------------|------------------------|-----------------------|
|------------------------|------------------------|------------------------||------------------------|---------------------7--|------------------------||--4--4--4----4--4----4--|----4----4--4--4--4-----|--9--9--9----9--9----9--||--4--4--4----4--4----4--|----4----4--4--4--4-----|--9--9--9----9--9----9--||--2--2--2----2--2----2--|----2----2--2--2--2-----|--7--7--7----7--7----7--||------------------------|------------------------|------------------------|
|-----------------------|------------------------------||-----------------------|------------------------------||----9----9----9--9--9--|--11--11--11----11--11----11--||----9----9----9--9--9--|--11--11--11----11--11----11--||----7----7----7--7--7--|--9---9---9-----9---9-----9---||-----------------------|------------------------------|
Pre Chorus |-----------------------------|------------------------||--------------------------2--|------------------------||----11----11--11--11--11-----|--4--4--4----4--4----4--||----11----11--11--11--11-----|--4--4--4----4--4----4--||----9-----9---9---9---9------|--2--2--2----2--2----2--||-----------------------------|------------------------|
Chorus |--------------------------|--------------------------||--------------------------|--------------------------||--------------------------|--4--4--4--4--4--4--4-----||--------------------------|--4--4--4--4--4--4--4-----||----4--4--4--4--4--4--x-x-|--2--2--2--2--2--2--2--7--||----2--2--2--2--2--2--x-x-|--------------------------|
|--------------------------|--------------------------|-------------------------||-----------------------0--|--------------------------|----------------------0--||-----------------------0--|-----------------------0--|--6--6-----9----9--9--0--||--9--9--9--9--9--9--9-----|-----------------------0--|--6--6-----9----9--9-----||--7--7--7--7--7--7--7-----|--4--4--4--4--4--4--4--0--|--4--4-----7----7--7-----||--0--0--0--0--0--0--0-----|--2--2--2--2--2--2--2-----|--------0----------------|
|--------------------------|--------------------------||--------------------------|--------------------------||--4--4--4--4--4--4--------|-----------------------0--||--4--4--4--4--4--4-----9--|--9--9--9--9--9--9--9--0--||--2--2--2--2--2--2-----7--|--7--7--7--7--7--7--7--0--||--------------------0-----|--0--0--0--0--0--0--0-----|
|--------------------------|------------------------|--------------------------||--------------------------|------------------------|--------------------------||--------------------------|------------------------|--4--4--4--4--4--4--4-----||--------------------------|-----6/-9--9------9--0--|--4--4--4--4--4--4--4-----||--4--4--4--4--4--4--4--4--|-----4/-7--7------7--0--|--2--2--2--2--2--2--2--7--||--2--2--2--2--2--2--2--2--|--0---------------------|--------------------------|
|--------------------------|--------------------------|-------------------------||-----------------------0--|--------------------------|----------------------0--||-----------------------0--|-----------------------0--|--6--6-----9----9--9--0--||--9--9--9--9--9--9--9-----|-----------------------0--|--6--6-----9----9--9-----||--7--7--7--7--7--7--7-----|--4--4--4--4--4--4--4--0--|--4--4-----7----7--7-----||--0--0--0--0--0--0--0-----|--2--2--2--2--2--2--2-----|--------0----------------|
|--------------------------|--------------------------||--------------------------|--------------------------||--4--4--4--4--4--4--------|-----------------------0--||--4--4--4--4--4--4-----9--|--9--9--9--9--9--9--9--0--||--2--2--2--2--2--2-----7--|--7--7--7--7--7--7--7--0--||--------------------0-----|--0--0--0--0--0--0--0-----|
With Solo |--------------------------|------------------------|------------------------||--------------------------|------------------------|------------------------||--------------------------|------------------------|--7--7--7----7--7----7--||--------------------------|-----6/-9--9------9--0--|--7--7--7----7--7----7--||--4--4--4--4--4--4--4--4--|-----4/-7--7------7--0--|--5--5--5----5--5----5--||--2--2--2--2--2--2--2--2--|--0---------------------|------------------------|
|-----------------------|------------------------|-----------------------||-----------------------|------------------------|-----------------------||----7----7----7--7--x--|------------------------|-----------------------||----7----7----7--7--x--|------------------------|-----------------------||----5----5----5--5--x--|--5--5--5----5--5----5--|----5----5----5--5--x--||-----------------------|--3--3--3----3--3----3--|----3----3----3--3--x--|
|------------------------|-----------------------|------------------------||------------------------|-----------------------|------------------------||--7--7--7----7--7----7--|----7----7----7--7--x--|------------------------||--7--7--7----7--7----7--|----7----7----7--7--x--|------------------------||--5--5--5----5--5----5--|----5----5----5--5--x--|--5--5--5----5--5----5--||------------------------|-----------------------|--3--3--3----3--3----3--|
|-----------------------|------------------------|-----------------------||-----------------------|------------------------|-----------------------||-----------------------|--7--7--7----7--7----7--|----7----7----7--7--x--||-----------------------|--7--7--7----7--7----7--|----7----7----7--7--x--||----5----5----5--5--x--|--5--5--5----5--5----5--|----5----5----5--5--x--||----3----3----3--3--x--|------------------------|-----------------------|
|------------------------|-----------------------|------------------------||------------------------|-----------------------|------------------------||------------------------|-----------------------|--7--7--7----7--7----7--||------------------------|-----------------------|--7--7--7----7--7----7--||--5--5--5----5--5----5--|----5----5----5--5--x--|--5--5--5----5--5----5--||--3--3--3----3--3----3--|----3----3----3--3--x--|------------------------|
|-----------------------|------------------------|-----------------------||-----------------------|------------------------|-----------------------||----7----7----7--7--x--|------------------------|-----------------------||----7----7----7--7--x--|------------------------|-----------------------||----5----5----5--5--x--|--5--5--5----5--5----5--|----5----5----5--5--x--||-----------------------|--3--3--3----3--3----3--|----3----3----3--3--x--|
Bridge|----|------------------------|----------------------|---------------------||----|------------------------|----------------------|---------------------||----|----12------12----------|------12--------------|----7------7---------||----|----12------12----------|------12--------------|----7------7---------||----|--------------------13h-|--14------------------|------------------8h-||----|------------------------|----------------------|---------------------|
|--------------------|------------------------|-------------------------|----||--------------------|------------------------|-------------------------|----||-----7--------------|----12------12----------|------12--------x--x--x--|----||-----7--------------|----12------12----------|------12--------x--x--x--|----||--9-----------------|--------------------13h-|--14---------------------|----||--------------------|------------------------|-------------------------|----|
Outro Chorus |------------------------||------------------------||--7--7--7----7--7----7--||--7--7--7----7--7----7--||--5--5--5----5--5----5--||------------------------|
|-----------------------|------------------------|-----------------------||-----------------------|------------------------|-----------------------||----7----7----7--7--x--|------------------------|-----------------------||----7----7----7--7--x--|------------------------|-----------------------||----5----5----5--5--x--|--5--5--5----5--5----5--|----5----5----5--5--x--||-----------------------|--3--3--3----3--3----3--|----3----3----3--3--x--|
|-------------------|------------------|--------------------||-------------------|------------------|--------------------||--7/---------------|------------------|--------------------||--7/---------------|------------------|--------------------||-------------------|------------------|--------------------||-------------------|------------------|------------19/-----|
|--------------------------|-------------------------||--------------------------|-------------------------||--------------------------|-------------------------||--------------------------|-----6/-9--9----9--9--0--||--4--4--4--4--4--4--4--4--|-----4/-7--7----7--7--0--||--2--2--2--2--2--2--2--2--|--0----------------------|
C#5 F#5 ||---------------------------|--------------------------|||---------------------------|--------------------------|||*--------------------------|--------------------------|||*--6--6--6--6--6--6--6-----|--------------------------|||---4--4--4--4--4--4--4-----|--4--4--4--4--4--4--4-----|||------------------------0--|--2--2--2--2--2--2--2--4--|
G#5 D#5 |--------------------------|-------------------------|--------------------------||--------------------------|-------------------------|--------------------------||--------------------------|--8--8-------------------|--------------------------||--------------------------|--8--8-------------------|--6--6--6--6--6--6--6-----||--6--6--6--6--6--6--6--6--|--6--6--0--4----4--4--4--|--4--4--4--4--4--4--4-----||--4--4--4--4--4--4--4--4--|--------0--2----2--2--2--|-----------------------0--|
|--------------------------|--------------------------||--------------------------|--------------------------||--------------------------|--------------------------||--------------------------|--------------------------||--4--4--4--4--4--4--4-----|--6--6--6--6--6--6--6--6--||--2--2--2--2--2--2--2--4--|--4--4--4--4--4--4--4--4--|
|-------------------------||--------------------------||-------------------------||--------------------------||-----8------------------*||--------------------------||-----8------------------*||--6--6--6--6--6--6--6-----||--x--6----4----4--4--4---||--4--4--4--4--4--4--4-----||--x-------2----2--2--2---||-----------------------0--|
|--------------------------|--------------------------|-------------------------||--------------------------|--------------------------|-------------------------||--------------------------|--------------------------|--8--8-------------------||--------------------------|--------------------------|--8--8-------------------||--4--4--4--4--4--4--4-----|--6--6--6--6--6--6--6--6--|--6--6--0--4----4--4--4--||--2--2--2--2--2--2--2--4--|--4--4--4--4--4--4--4--4--|--------0--2----2--2--2--|
|--------------------------|--------------------------||--------------------------|--------------------------||--------------------------|--------------------------||--6--6--6--6--6--6--6-----|--------------------------||--4--4--4--4--4--4--4-----|--4--4--4--4--4--4--4-----||-----------------------0--|--2--2--2--2--2--2--2--4--|
|--------------------------|------------------------|--------------------------||--------------------------|------------------------|--------------------------||--------------------------|-----8------------------|--------------------------||--------------------------|-----8------------------|--6--6--6--6--6--6--6-----||--6--6--6--6--6--6--6--6--|--x--6----4----4--4--4--|--4--4--4--4--4--4--4-----||--4--4--4--4--4--4--4--4--|--x-------2----2--2--2--|-----------------------0--|
|--------------------------|--------------------------|-------------------------||--------------------------|--------------------------|-------------------------||--------------------------|--------------------------|--8--8-------------------||--------------------------|--------------------------|--8--8-------------------||--4--4--4--4--4--4--4-----|--6--6--6--6--6--6--6--6--|--6--6--0--4----4--4--4--||--2--2--2--2--2--2--2--4--|--4--4--4--4--4--4--4--4--|--------0--2----2--2--2--|
|--------------------------|--------------------------||--------------------------|--------------------------||--------------------------|--------------------------||--6--6--6--6--6--6--6-----|--------------------------||--4--4--4--4--4--4--4-----|--4--4--4--4--4--4--4-----||-----------------------0--|--2--2--2--2--2--2--2--4--|
|--------------------------|----------------------|------------------|||--------------------------|----------------------|------------------|||--------------------------|-----8----------------|------------------|||--------------------------|-----8----------------|------------------|||--6--6--6--6--6--6--6--6--|--x--6-----4----------|------------------|||--4--4--4--4--4--4--4--4--|--x-----0--2----------|------------------||
Riff A||--------------------|||--------------------|||--6b-------------6b-|||--------------------|||--------------------|||--------------------|
|----------------------|--------------------------|---------------------------||----------------------|--------------------------|----12---------------------||----4--6--4~----------|------9~-----------9--11b-|--------11h9-----9~---9/---||-------------------9/-|--11-----------11---------|-------------11------------||----------------------|--------------------------|---------------------------||----------------------|--------------------------|---------------------------|
|----------------------------|-----------------------|----------------4--------||------------------------14b-|-----------------------|----------4--7-----------||--11----13----13b---11------|----13b---11~----------|--4--6b---------------7h-||----------------------------|--------------------6--|-------------------------||----------------------------|-----------------------|-------------------0-----||----------------------------|-----------------------|-------------------------|
|----------------------|||----------------------|||--6--4--6--4----------|||----------------------|||----------------------|||----------------------||
Riff B||------------------------|-------------------------||||----7--7--7--7--7/---7--|--7----------------------||||----8--8--8--8--8/---8--|-----8h-6--4-------------||||------------------------|--------------6--4-------||||------------------------|--------------------6/---||||------------------------|-------------------------||
Solo||-------------------|--------------------|||-------------------|--9b-------------9b-|||----------------7--|--------------------|||-------------------|--------------------|||-------------------|--------------------|||-------------------|--------------------|
|----------------------------|---------------------|------------10--------||------9b---9b---9b-9b-9b-9b-|-----------------10b-|------------------10b-||----------------------------|--7~-----------------|----------------------||----------------------------|---------------------|----------------------||----------------------------|---------------------|----------------------||----------------------------|---------------------|----------------------|
|--------------------|-------------------8h-|--7----------------------||----------10~-------|------------8--10-----|-------10----------------||--------------------|----------------------|-----------9b---7--9--7~-||--------------------|----------------------|-------------------------||--------------------|----------------------|-------------------------||--------------------|----------------------|-------------------------|
|------------10--10--10------|--------------10------10--||------------10--10--10--13b-|------13b---------13------||--------11------------------|--------------------------||----------------------------|--------------------------||----------------------------|--------------------------||----------------------------|--------------------------|
|------10--13h10-----10------------|----------------------------||--13b-----------13------13--13----|------13--13----10--12--12b-||----------------------------12b---|----------12b---10--12--12b-||----------------------------------|----------------------------||----------------------------------|----------------------------||----------------------------------|----------------------------|
|------------------------------|------------------------------||--12b---10b-------------------|--------10----10------10--10--||--12b---10b-------10----------|--------10--------12--10--10--||--------------12------12--12~-|----12------------12----------||------------------------------|------------------------------||------------------------------|------------------------------|
|--------10--10----------10------|-------10--10h13h10----10---------------------||--------10--10------10------10--|--13b---------------13-----13--13h12h11h10----||----12b---------12b-------------|-------------------------------------------13-||--------------------------------|----------------------------------------------||--------------------------------|----------------------------------------------||--------------------------------|----------------------------------------------|
|------------------------------------|--------------------|||--10------10----------------10b-----|--------------------|||------12--10--12b-12h10-----10b-12--|--12/---------------|||------------------------12----------|--------------------|||------------------------------------|--------------------|||------------------------------------|--------------------||
By Lill Noodler. If you like this tab then check out my Down On The Farm Tab which is on this site labelled as Version Two and also my Backyard Babies Tab also found on this site of their song Payback.
Tap to rate this tab
 
# A B C D E F G H I J K L M N O P Q R S T U V W X Y Z