Buckcherry – Gluttony tab

Tuning: Drop D

Intro+Verse

|---------------------------------------------------------||---------------------------------------------------------||----------5--------------------5----------7-5-7----------||----------5--5-----------------5--5-------7-5-7----------||-5-3------3--5---5----5-3------3--5--5----5-3-5----------||-----5-0-----5-----0------5-0-----5----0-----------------|
|---------------------------------------------------------||---------------------------------------------------------||-5-----------------5-------------------------------------||-5--5--------------5-------------------------------------||-3--5--5---5-3-----3-------------------------------------||----5----0-----5-0---------------------------------------|
Chorus
|---------------------------------------------------------||---------------------------------------------------------||-7----10----10---7--12---10--9--12-----------------------||-7----10----8----5--10---8---7--10-----------------------||-5----8-----8----5--10---8---7--10-----------------------||------------8----5--10---8---7--10-----------------------|
Verse
|---------------------------------------------------------||---------------------------------------------------------||----------5--------------------5----------7-5-7----------||----------5--5-----------------5--5-------7-5-7----------||----------3--5---5----5-3------3--5--5----5-3-5----------||-----0-------5-----0------5-0-----5----0-----------------|
|---------------------------------------------------------||---------------------------------------------------------||-5-----------------5-------------------------------------||-5--5--------------5-------------------------------------||-3--5--5---5-3-----3-------------------------------------||----5----0-----5-0---------------------------------------|
Chorus
|-------------------------------------------------||-------------------------------------------------||-7----10----10---7--12---------------------------||-7----10----8----5--10---------------------------||-5----8-----8----5--10---------------------------||------------8----5--10---------------------------|
|-------------------------------------------------||-------------------------------------------------||-7----10----10---7--12---10-9---solo-starts-here-||-7----10----8----5--10---8--7--------------------||-5----8-----8----5--10---8--7---5-3------5-3-----||------------8----5--10---8--7-------5-0------5-0-|
Rhythm guitar during the solo
|-------------------------------------------------||-------------------------------------------------||-7----10----10---7--12---------------------------||-7----10----8----5--10---------------------------||-5----8-----8----5--10---------------------------||------------8----5--10---------------------------|
Bridge
|----------------------------------------------||----------------------------------------------||-7~---10~---10~--7~---------------------------||-7~---10~---8~---5~---------------------------||-5~---8~----8~---5~---------------------------||------------8~---5~---------------------------|
Chorus
|-------------------------------------------------||-------------------------------------------------||-7----10----10---7--12---------------------------||-7----10----8----5--10---------------------------||-5----8-----8----5--10---------------------------||------------8----5--10---------------------------|
|-------------------------------------------------||-------------------------------------------------||-7----10----10---7--12---10--9--12---------------||-7----10----8----5--10---8---7--10---------------||-5----8-----8----5--10---8---7--10---------------||------------8----5--10---8---7--10---------------|
Please rate this tab:
x1.0