Buckethead - Buddy Berkmans Ballad tab

Artist : Buckethead
Song   : Buddy Berkman's Ballad
Album  : Crime Slunk Scene
Tuning : Eb Ab Db Gb Bb Eb or D# G# C# F# A# D# 
           whichever sounds better to you

|-----------|---------------|-----------|------------||-----------|---------------|-----------|------------||-----------|---------------|-----------|----X-X-X-X-||-7/--------|-7/------------|-7/--------|-7/-X-X-X-X-||-5/-/5-8-7-|-5/-/5-6-5-3-0-|-5/-/5-8-7-|-5/-X-X-X-X-||----/5-8-7-|----/5-6-5-3-0-|----/5-8-7-|------------|
-10---7---10-|-10---7---10-|-10---8---10-|-12---10--12-|-------------|-------------|
|---------------|--------------|---------------|------------||---------------|--------------|---------------|------------||---------------|--------------|---------------|------------||-------------3-|--------------|-------------3-|------------||-5-3-----------|-5-3------3-3-|-5-3-----------|-5-3--------||-----5p3p0-0---|----5p3p0-----|-----5p3p0-0---|-----5p3p-0-|
|-------------------|--------------------||-------------------|--------------------||-------------------|--------------------||-------5-5/7-------|-------/7-5---------||-5-3-5-------1-1h3-|-5-3-5------8-7h8p7-||-------------------|--------------------|
|--------------------|----------------------||-------8-8/10-------|-------/10-8----------||-7-5-7--------3-3h5-|-7-5-7------10-9h10p9-||--------------------|----------------------||--------------------|----------------------||--------------------|----------------------|
|----------15-15/17----------|---------/17-15-------------||-15-13-15----------11-11h13-|-15-13-15-------18-17h18p17-||----------------------------|----------------------------||----------------------------|----------------------------||----------------------------|----------------------------||----------------------------|----------------------------|
----------------------------------|----------------------------------|-9-7-9-7-5-7-12-10-12-15-14-15-14-|-9-7-9-7-5-7-12-10-12-15-14-15-14-|-7-5-7-5-3-5-10-8--10-13-12-13-12-|----------------------------------|
|---------------------------------||-------------------------X-X-8-6-||-7\-/7-5-----------------X-X-7-5-||-7\------7-6-5-3---------X-X-----||-5\--------------2-3-4-5---------||---------------------------------|
|-----------|-------------||-----------|-------------||-7-11------|-7p0h7/11----||--------7\-|----------7\-||-5-9----5\-|-5p0h5/9--5\-||-----------|-------------|
|-------------------------|-----------------------------||-------------------------|-----------------------------||-------------------3h5-3-|-----------------------------||---5h7p5---3---3---------|---5h7p5---3---2---2s3-------||-5-------5---5---5-------|-5-------5---3---3-3s5-------||-------------------------|-----------------------------|
|---------------------------|----------------------||---------------------------|----------------------||---------------3h5p3---3s2-|----------------------||---5h7p5---3---------5-----|---5h7p5---2-2s3-3--7-||-5-------5---5-------------|-5-------5-3-3s5-5--5-||---------------------------|----------------------|
Tap to rate this tab
 
# A B C D E F G H I J K L M N O P Q R S T U V W X Y Z