Buckethead - Killing Cone tab

Killer Cone
Decoding the Tomb of Bansheebot

all in order...


|--------------------------------------------------------------------------||--------------------------------------------------------------------------||--------------------------------------------------------------------------||-------------------------------6-----8-9-8-7-6---6------------------------||-------------------6-----9-8-----7-6-----------9---8-9-6-7---6------------||-0-0-0-0-0-0-0-0-0---8-7-----9-----------------------------8---7----------|pm.................................................................... x7
|--------------------------------------||--------------------------------------||------------------------10~-----------| x4|----7-7-------3-5-------8~------------||----5-5-------3-5-------8~------------||--------------1-3-------6~------------|
all fast picking|--------------------------------------------------------------------------||--------------------------------------------------------------------------||-7------------------------------------------------------------------------||-7-------7-7-8-10-8-7-------7-8-7-------5-5--7-------8-------10---8----7--||-5-55555--------------10-10-------8-7-7---3--5-55555-5-55555-5-55-5-55-5--||--------------------------------------------------------------------------|
..... . . . . . . . . . . . . . . . ..... ..... .. .. x3last time play at the end|--------------------------------------||--------------------------------------||--------------------------------------||--7--------5--------8--------7--------||--5-555555-5-555555-5-555555-5-555555-||--------------------------------------| ...... ...... ...... ......
|-------------------------------------------------------------------||-------------------------------------------------------------------||-------------------------------------------------------------------||---------4/5/4---------4/5/4---------------------------------------| x4|-------5-------------5-----------7~-----7-----5-----3----5-----7~--||-0-3-7---------0-3-7---------0-3----0-3---0-3---0-3---0-3--0-3-----|
|-------------------------------------------------------------------||-------------------------------------------------------------------||-------------------------------------------------------------------| x4|-------------------------------6-----8-9-8-7-6---6-----------------||-------------------6-----9-8-----7-6-----------9---8-9-6-7---6-----||-0-0-0-0-0-0-0-0-0---8-7-----9-----------------------------8---7---| . . . . . . . . . . . . . . . . . . . . . . . . . . . . . . . .
|---6~~-----||---6~~-----||---10~~----||---8~~-----||---8~~-----||---6~~-----|
|---0-7-10-7-0-7-10-7-0-7-8-7-0-7-8-7---||---------------------------------------||---------------------------------------| x4|---------------------------------------||---------------------------------------||---------------------------------------| . . . . . . . . . . . . . . . .
|------------------------------------------------||------------------------------------------------||------------------------------------------------||--9-7-9--9p10h9--9-7-9--------------------------||--7-7-7----------7-7-7--9h10p9------------------||-------------------------------10h12p10-8h10p8--|
play with|---------------------------------------------------------||---------------------------------------------------------||---------------------------------------------------------| |--9-7-9--9h10p9------------------------------------------| x4|--7-7-7---------9h10p9-10h12p10-9h10p9-------------------||---------------------------------------10h12p10-8h10p8---|
|---10~~----9~~---||---7~~-----7~~---||---7~~-----7~~---||-----------------| x4|-----------------||-----------------|
let ring x2 x2|-5-----5-----5-----8-5---5--|-------------------------||---6-----6-----6-------6----|-5-----5-----5-6---6-5---||-----7-----7-----7----------|---5-----5---------------| x3|----------------------------|-----7-----7-----7-------||----------------------------|-------------------------||----------------------------|-------------------------|
|-------------------------------------------------12-------12~~--||--10h11p10-10--10h13p10-10--10--10h11p10-10--13-----13----------||--10~------10--10~------10--10--10~------10--10--------10-------| x4|----------------------------------------------------------------||----------------------------------------------------------------||----------------------------------------------------------------|
x3 x3|----------------------|------|-----------------------||----------------------|------|-----------------------||----------------------|--7~~-|-----------------------||--5-5-5---------------|--7~~-|--5-5-5----------------||--3-3-3-3h5p3h5p3h5p3-|--5~~-|--3-3-3-3h5p3h5p3h5p3--||----------------------|------|-----------------------|
goes into|--------------------------------------------||--------------------------------------------||--------------------------------------------||--7-------8-------10---8----7---------------||--5-55555-5-55555-5-55-5-55-5-555555--------||--------------------------------------------| ..... ..... .. .. ......
|--------------------------------------------------------------------------||--------------------------------------------------------------------------||-7------------------------------------------------------------------------||-7-------7-7-8-10-8-7-------7-8-7-------5-5--7-------8-------10---8----7--||-5-55555--------------10-10-------8-7-7---3--5-55555-5-55555-5-55-5-55-5--||--------------------------------------------------------------------------| ..... . . . . . . . . . . . . . . . ..... ..... .. ..
|---------------------------------------------||---------------------------------------------||-7-------------------------------------------||-7-------7-7-8-10-8-7-------7-8-7-------5-5--||-5-55555--------------10-10-------8-7-7---3--||---------------------------------------------| ..... . . . . . . . . . . . . . . .
...fast x4|--------------------------------------------------------------|-----||--------------------------------------------------------------|-----||--7-7-7-10-7-7-8-7-7-7-7-7------------------------------------|--7--||---------------------------8-10-10-8-7-8-8-7-5-7-5-3-3---3----|--7--||-------------------------------------------------------5---6--|--5--||--------------------------------------------------------------|-----| . . . . . . . . . . . . . . . . . . . . . . . .
...good luck
Tap to rate this tab
 
# A B C D E F G H I J K L M N O P Q R S T U V W X Y Z