Buckethead - Animal Behaviour Live tab

Buckethead Animal Behavior- live intro
By: Schtick_Bomb


The only tabs for this song are the outro/solo so I decided I would tab out the live 
he does sometimes for it. Ive only seen a few videos of him doing this intro live, mostly 
his early bands like giant robot and praixs and such.

He uses a bit of delay and reverb, it sounds better if you slightly roll off the volume.

---------------------------------------|---------------------------10---10-----|-----------------------7~~----9----9---|--------------11-11-11-----------------|--------9-9-9--------------------------|--7-7-7--------------------------------|
---------------------------------------|---------------------------------------|-----------------------7~~-8---8-------|--------------11-11-11-------9---9-----|--------9-9-9--------------------------|--7-7-7--------------------------------|
---------------------------------------|---------------------------------------|--------------------4~~-0---0----------|--------------7-7-7-------4---4--------|--------5-5-5--------------------------|--3-3-3--------------------------------|
---------------------------------------|---------------------------------------|--------------------4~~-0---0----------|--------------7-7-7-------4---4--------|--------5-5-5--------------------------|--3-3-3--------------------------------|
---------------------------------------|---------------------------10---10-----|-----------------------7~~----9----9---|--------------11-11-11-----------------|--------9-9-9--------------------------|--7-7-7--------------------------------|
---------------------------------------|---------------------------------------|-----------------------7~~-8---8-------|--------------11-11-11-------9---9-----|--------9-9-9--------------------------|--7-7-7--------------------------------|
---------------------------------------|---------------------------------------|--------------------4~~-0---0----------|--------------7-7-7-------4---4--------|--------5-5-5--------------------------|--3-3-3--------------------------------|
---------------------------------------|---------------------------------------|--------------------4~~-0---0----------|--------------7-7-7-------4---4--------|--------5-5-5--------------------------|--3-3-3--------------------------------|
----------------------------10---9-----|-------------------------------7---7---|-----------------------7~~-------------|--------------11-11-11-----------------|--------9-9-9--------------------------|--7-7-7--------------------------------|
---------------------------------------|------------------------------10-------|-----------------------7-/-11----11----|--------------11-11-11-----------------|--------9-9-9--------------------------|--7-7-7--------------------------------|
---------------------------------------|---------------------------------------|--------------------4~~-0---0----------|--------------7-7-7-------4---4--------|--------5-5-5--------------------------|--3-3-3--------------------------------|
---------------------------------------|---------------------------------------|--------------------4~~-0---0----------|--------------7-7-7-------4---4--------|--------5-5-5--------------------------|--3-3-3--------------------------------|
Tap to rate this tab
 
# A B C D E F G H I J K L M N O P Q R S T U V W X Y Z