Buckethead - Goblin Shark tab version 2

Goblin Shark by Buckethead
from Pepper's Ghost

Transcribed by Martin Wong, all credit to him.
Uploaded by 420-Rockstar

-----------------------------------------------------------|-10---6--6h8--6--5~-----8--8-10--10~-----8--5--5h6--6~-----|-7----5--5----5--5~-----9--9-10--10~-----9--5--5h7--7~-----|-----------------------------------------------------------|-----------------------------------------------------------|-----------------------------------------------------------|
-----------------------------------------------------------|-10---6--6h8--6--5~-----8--8-10--10~-----6--6--5--5--6~----|-7----5--5----5--5~-----9--9-10--10~-----7--7--5--5--7~----|-----------------------------------------------------------|-----------------------------------------------------------|-----------------------------------------------------------|
-----------------------------------------------------------|-----------------------------------------------------------|-7--7------------------------------------------------------|-7--7-------------------1----------------------------------|-5--5------------1-2-3----3-1------------------------------|----------1-2-3-----------------3-2-1----------------------|
-----------------------------------------------------------|-----------------------------------------------------------|---7--7----------------------------------------------------|---7--7-----------------1----------------------------------|---5--5----------1-2-3----3-2-1~---------------------------|----------1-2-3------------------3~---2~-1~----------------|
-----------------------------------------------------------|-----------------------------------------------------------|---7--7----------------------------------------------------|---7--7-----------------1----------------------------------|---5--5----------1-2-3----3-2-1~---------------------------|----------1-2-3------------------3---2~-1------------------|
-----------------------------------------------------------|-----------------------------------------------------------|---7--7----------------------------------------------------|---7--7-----------------1----------------------------------|---5--5----------1-2-3----3-2-1~---------------------------|----------1-2-3------------------3~---2~-1~----------------|
A.-----------------------------------------------------------|-----------------------------------------------------------|-5h7--5----------------------------------------------------|-5----5-----5h7-----3h5--5h7--5p3--------------------------|------------5-------3----3----3----------------------------|-----------------------------------------------------------|
-----------------------------------------------------------|-----------------------------------------------------------|-5h7--5----------------------------------------------------|-5----5-----5h7-----3h5--5h7--5p3--------------------------|------------5-------3----3----3----------------------------|-----------------------------------------------------------|
-----------------------------------------------------------|-----------------------------------------------------------|-5h7--5----------------------------------------------------|-5----5-----5h7-----3h5--5h7--5p3--------------------------|------------5-------3----3----3----------------------------|-----------------------------------------------------------|
-----------------------------------------------------------|-----------------------------------------------------------|-----------------------------------------------------------|-3--2--3s5-----3h5--5h7--5p3-------------------------------|-1--1--1s3-----3----3----3---------------------------------|-----------------------------------------------------------|
B.-----------------------------------------------------------|-----------------------------------------------------------|-5h7--5----------------------------------------------------|-5----5-----5h7-----3h5--5h7--5p3--------------------------|------------5-------3----3----3----------------------------|-----------------------------------------------------------|
-----------------------------------------------------------|-----------------------------------------------------------|-5h7--5----------------------------------------------------|-5----5-----5h7-----3h5--5h7--5p3--------------------------|------------5-------3----3----3----------------------------|-----------------------------------------------------------|
-----------------------------------------------------------|-----------------------------------------------------------|-5h7--5----------------------------------------------------|-5----5-----5h7-----3h5--5h7--5p3--------------------------|------------5-------3----3----3----------------------------|-----------------------------------------------------------|
-----------------------------------------------------------|-----------------------------------------------------------|-----------------------------------------------------------|-3--2--3----3h5--5h7--5p3-----7----------------------------|-1--1--1----3----3----3-------5----------------------------|-----------------------------------------------------------|
-------------0-------------------0-----0-------------------|------13-------13---------13-------13----13----13----------|---10----10-------10----9----9---------------9-------------|-0---------------------------------------------------------|-----------------------------------------------------------|-----------------------------------------------------------|
-----------------------------------------------------------|-----------------------------------------------------------|-----------------------------------------------------------|-7---10---12-----------------------------------------------|-5---8----10-----------------------------------------------|-----------------------------------------------------------|
--------------------12-------------------------------------|-------------13--------13~---------------------------------|-9-9-9--10~-----10-----------------------------------------|-----------------------------------------------------------|-----------------------------------------------------------|-----------------------------------------------------------|
-----------------------------------------------------------|-----------------------------------------------------------|-7-----------------7---------------------------------------|-7--3--5--8--------7--3--5---10--8-8-----------------------|-5--3--5--8--------5--3--5---10--8-8-----------------------|----1--3--6-----------1--3---8---6-6-----------------------|
|------------------------15~-13-12-------------------------||-10~-13----------10~--------------15~---10~---------------||--------10~--12~----------------------------12-10---------||--------------------------------------------------12~-----||----------------------------------------------------------||----------------------------------------------------------|
| |
|------------------------18~-17-15-------------------------||-13~-17----------13~--------------18~---13~---------------||--------14~--15~----------------------------15-14---------||--------------------------------------------------15~-----||----------------------------------------------------------||----------------------------------------------------------|
Repeat 6x|-10-------10---10-------10---10-------10---10-------10----||----10-10---------11-11---------13-13---------11-11-------||----------------------------------------------------------||----------------------------------------------------------||----------------------------------------------------------||----------------------------------------------------------|
| |
|----------------------------------------------------------||----------------------------------------------------------||-7-----7---7-----7---7-------7---7-----7------------------||---7-7-------8-8-------10-10-------8-8--------------------||----------------------------------------------------------||----------------------------------------------------------|
-----------------------------------------------------------|-----------------------------------------------------------|-7-sl/-----------------------------------------------------|-7-sl/-----------------------------------------------------|-5-sl/-----------------------------------------------------|-----------------------------------------------------------|
Tap to rate this tab
 
# A B C D E F G H I J K L M N O P Q R S T U V W X Y Z