Buckethead – Flea Market tab

Intro: B E F#

0:09|--------------7--11h12p11p9-11------------------------||--7-7-7-7/9-7--------------------12-12-11-12----------||---------------------------------------------11--9/8--||------------------------------------------------------||------------------------------------------------------||------------------------------------------------------|
0:21|-----------------12--11-------------------------------||------------12h14------12-------12---x----------------||--8/9-9/11-----------------11h13-----x----------------||-------------------------------------x-9h11-9----9----||------------------------------------------------------||------------------------------------------------------|
0:38|------------------------------------------------------||------------------------------------------------------||----8-9-9/11--9-8-9--8h9p8----------------------------||--11-------------------------11/9-------9-------------||-----------------------------------9h11---11-9/6------||-------------------------------------------------9p7--|
0:50|-------------------------------------------------------||----------12-12/14---12p11h12--------------------------||------------------------------11/13/11--9-8--9p8--8----||--------9---------------------------------------11-11--||--9-9h11-----------------------------------------------||-------------------------------------------------------|
1:01|-----------------------------14-14-12-12-12/11-9-9/11--||-------------9-12-12--14/16----------------------------||----8h9-9/11-------------------------------------------||--11---------------------------------------------------||-------------------------------------------------------||-------------------------------------------------------|
|--14h16p14----------14h16p14--------------0-----------||-----------14h16p14----------14h16p14-12-----12-------||-------------------------------------------11---8--9--||------------------------------------------------------||------------------------------------------------------||------------------------------------------------------|
1:27|----------------------------------9h11-12-11p9-11--------||------------------12p11------11-------------------12-12--||--8-9-11---8-9-11------13-13---11------------------------||----------9----------------------------------------------||---------------------------------------------------------||---------------------------------------------------------|
1:46|--------------------------------------------------------||----14-14-14----14/12-12/11-----------------------------||--11----------11------------11--8-8/9-------------------||--------------------------------------11h13p11/9-9/8----||-----------------------------------------------------9--||--------------------------------------------------------|
|---------------------------------------------------------||-----------------------------12-14-14--16-14--12-----12--||------------------------11-11----------------------------||-------------------8-9-9------------------------11h13~---||--9/11/9--------6-9--------------------------------------||---------11-7--------------------------------------------|
2:12|----------------------------11-12p11-12-14-12p11--------||--12p11-12-------------12-14---------------------12-----||-----------11-11h13--13---------------------------------||--------------------------------------------------------||--------------------------------------------------------||--------------------------------------------------------|
|-----------------------------------11-11/9-9--16-16/14-14--||------------------------------7----------------------------||-11hp13p11--11p9p8--6h8p6--8h9-9p8-------------------------||--------------------------9--------------------------------||-----------------------------------------------------------||-----------------------------------------------------------|
|--11-11/12/11-9-9h11p9--18-18/19/18-16-18-14-12p11--------||---------------------------------------------------14-12--||----------------------------------------------------------||----------------------------------------------------------||----------------------------------------------------------||----------------------------------------------------------|
|----------------------------------------------------------||-------------9-11-12-11-9/7-------------------------------||-----8-9-11----------------------8-9-11-11/13/11-9-8/6----||-9-11------------------------9-11----------------------9--||----------------------------------------------------------||----------------------------------------------------------|
|----------------------------------------------0--||--------------------12-11---------------------0--||------8-9-11-9-8---------11-11/13/11-9p8------8--||--9-11-----------9----------------------11p9--9--||----------------------------------------------9--||-------------------------------------------------|
|----------------------------------------0--||----------------------------------------0--||-------9/8--------9---------------------8--||------9----------9--11p9----------------9--||--9h11------9h11------------------------9--||--------------------------9h11-11p9/7---7--|
Please rate this tab:
x1.0