Buckethead - Soothsayer tab version 1

Artist : Buckethead
Song   : Soothsayer
Album  : Crime Slunk Scene
Tuning : Eb Ab Db Gb Bb Eb

Sorry if some of the notes got cut off in the solo but its
probably just minor stuff that you can improvise on.

Intro------------9p8----------------------------------------|-------11--------11----9h11p9---9---7--6-7p6-----------|---10---------------10--------8---8-6--------6---------|-8-----------------------------------------------------|-------------------------------------------------------|-------------------------------------------------------|
------------9p8----------------------------------------|-------11--------11----9h11p9---9---7~~----------------|---10---------------10--------8---8-6------------------|-8-----------------------------------------------------|-------------------------------------------------------|-------------------------------------------------------|
------------9p8----------------------------------------|-------11--------11----9h11p9---9---7--6-7p6-----------|---10---------------10--------8---8-6--------6---------|-8-----------------------------------------------------|-------------------------------------------------------|-------------------------------------------------------|
------------9p8----------------------------------------|-------11--------11----9h11p9---9----7~~---------------|---10---------------10--------8---8--6~~---------------|-8-----------------------------------------------------|-------------------------------------------------------|-------------------------------------------------------|
------------9p8------------------------8-9p8-----------|-------11--------11----9h11p9---9---7-------9----------|---10---------------10--------8---8-6------------------|-8-----------------------------------------------------|-------------------------------------------------------|-------------------------------------------------------|
------------9p8----------------------------------------|-------11--------11----9h11p9---9----7~~---------------|---10---------------10--------8---8--6~~---------------|-8-----------------------------------------------------|-------------------------------------------------------|-------------------------------------------------------|
Chorus
Some parts he does with a wah------------------------------------------------------------|------------------------------------------------------------|------------------------------------------------------------|----------6-6s11~~~~----------6-6--------------4-6-8-6-4----|-8-8-8-8--4-4s9~~~~---8--8-8--4-4-4-------4-6-8---------8-4-|-6-6-6-6--------------6--6-6------2--4-6-8------------------|
------------------------------------------------------------|------------------------14b16-------------------------------|-----------------------------13p12--------------------------|----------6--11s13s11-------------15-------6-6s8------------|-8-8-8-8--4---9s11s9------------------8-8--4-4s6-4~~--------|-6-6-6-6------------------------------6-6--------2~~--------|
change between this and the intro pattern------------9p8----------------------------------------|-------11--------11----9h11p9--9---7-6-7p6-------------|---10---------------10--------8-8--6------6------------|-8---------------------------6-------------------------|-------------------------------------------------------|-------------------------------------------------------|
------------9p8----------------------------------------|-------11--------11----9h11p9--9---7-6-7p6-------------|---10---------------10--------8-8--6------6------------|-8---------------------------6-------------------------|-------------------------------------------------------|-------------------------------------------------------|
Intro to Solo--------------------------9-9-11-11-------9-9-|--------11-11-13-13-----------------13-13-----|--10-10-------------10-10---------------------|----------------------------------------------|----------------------------------------------|----------------------------------------------|
----------------------------------------------|--13-13---------------------------------------|--------13-13-10-10-11-11---------------------|--------------------------11-11-10-10-11-11---|--------------------------------------------1-|----------------------------------------------|
--------------------------9-9----------------|--------------------13-13-----13-13-11-11----|--------13-13-10-10-----------------------13-|--11-11--------------------------------------|---------------------------------------------|---------------------------------------------|
----------------------------------------------|----------------------------------------------|--10-10-11-11---------------------------------|--------------11-11-10-10-11-11-13-13-11-11-1-|----------------------------------------------|----------------------------------------------|
--------------------------------9-9----------|--------------------------13-13-----13-13-11-|--------------13-13-10-10--------------------|--------11-11--------------------------------|--11-11--------------------------------------|---------------------------------------------|
----------------------------------------------|----------------------------------------------|--10-10-13-13-11-11-10-10-11-11---------------|--------------------------------11-11-10-10---|--------------------------------------------1-|----------------------------------------------|
--------------------9-9-11-11-------9-9-------|------------------------------13-13-----13-13-|--------13-13-10-10---------------------------|--11-11---------------------------------------|----------------------------------------------|----------------------------------------------|
--------------------------|--------------------------|--13-13-10-10-11-11-------|--------------------11-11-|--------------------------|--------------------------|
Solo---------------------------------------------|----------9~---------9~---------9~-----------|--------------------------------------11-10~-|--8-10-11----8-10-11----8-10-11----11--------|---------------------------------------------|---------------------------------------------|
-------------------------|-------------------------|---------------8~--------|-------------------------|-------------------------|-------11s--0------------|
---------------------------------------------|----------9~---------9~---------9~-----------|-----------------------------------10--------|--8-10-11----8-10-11----8-10-11-------11-11~-|---------------------------------------------|---------------------------------------------|
----------------------------11-13~-L----|----------------------13-14-------------|-----11p-10--11-13-15-------------------|----------------------------------------|----------------------------------------|----------------------------------------|
---------------------------------------------|----------9~---------9~---------9~-----------|-----------------------------------10--------|--8-10-11----8-10-11----8-10-11-------11-11~-|---------------------------------------------|---------------------------------------------|
-------------------------------------|-------------------------------------|-----11p-10--------------------------|-------------11-10-8--6-8-10-8p-6-L--|-------------------------------------|-------------------------------------|
----------------------------------------------|----------9~---------9~------9-------14s-16-1-|---------------------------8---11-10----------|--8-10-11----8-10-11----11--------------------|----------------------------------------------|----------------------------------------------|
-------------------------------------------|--16-16-16s-18-18~--16S--(0)---------------|-------------------------------------------|-------------------------------------------|-------------------------------------------|------------------------------11s--0s--11--|
------------------------------------|--6-----6-------9-----9-------11----|--8b----8b~----11b~--11b~-----13b~--|------------------------------------|------------------------------------|------------------------------------|
-----------------------------------|------------14p-13-11h-13----------|--------------------------10--13s--|-----------------------------------|-----------------------------------|-----------------------------------|
------------------------------------|--6-----6-------9-----9-------11----|--8b----8b~----11b~--11b~-----13b~--|------------------------------------|------------------------------------|------------------------------------|
------------------------------------------|-------13-13S-14-16b~----16pbr-16~--14-13-|------------------------------------------|------------------------------------------|------------------------------------------|------------------------------------------|
------------------------------------|--6-----6-------9-----9-------11----|--8b----8b~----11b~--11b~-----13b~--|------------------------------------|------------------------------------|------------------------------------|
---------------------------------------------|-------11h-13h-14-13-11-13--11-13------------|----------------------------------13---------|-------------------------------------15S-11S-|---------------------------------------------|---------------------------------------------|
-----------------------------16------------|---------9-11S-14-16b-----------16pb~------|-------------------------------------------|--8S-11------------------------------------|-------------------------------------------|-------------------------------------------|
---------------------------|--16pb~-------------16S----|---------------------------|---------------------------|---------------------------|---------------------------|
--------------------------------|--6-----------------------------|--8b----10S----------(18)--18~--|--------------------------------|--------------------------------|--------------------------------|
-----------------------------------------|-----------------------------------------|--------17-15h-17-15S--11S--13S--10S-11--|-----------------------------------------|-----------------------------------------|-----------------------------------------|
--------------------------------|--6-----------------------------|--8b----10S----------(18)--13~--|--------------------------------|--------------------------------|--------------------------------|
------------------------------|------------------------------|--(13)S----22~---------22S----|------------------------------|------------------------------|------------------------------|
--------------------------------|--6-----------------------------|--8b----10S----------(18)--18~--|--------------------------------|--------------------------------|--------------------------------|
----------------------------------------------|----------------------------------------------|--(18)S----(17)S-15h-17-15S--11S--13S--10S-11-|----------------------------------------------|----------------------------------------------|----------------------------------------------|
--------------------------------|--6-----------------------------|--8b----10S----------(18)--22~--|--------------------------------|--------------------------------|--------------------------------|
----------------------|----------------------|-----------22S--------|----------------------|----------------------|----------------------|
----------------------------------------------|--21--19-21-19-18-18-19-21-19-18S-18-19p-18-1-|----------------------------------------------|----------------------------------------------|----------------------------------------------|----------------------------------------------|
----------------------------------------------|--19-18-------21-19-18-------21-21-19-18------|--------20-18----------20-18-------------20-1-|----------------------------------------------|----------------------------------------------|----------------------------------------------|
----------------------------------------------|-----------21-21-21-21-19-18-------21-21-21-2-|--20-18-20-------------------20-18------------|----------------------------------------------|----------------------------------------------|----------------------------------------------|
----------------------------------------------|----------------------18-16----------21-21-21-|------13S-15-17-18-20-------20-19-20----------|----------------------------------------------|----------------------------------------------|----------------------------------------------|
----------------------------------------------|--------------------------------------21-19-1-|--------------------------17-18-17-18---------|-----------------16-18-20---------------------|--------16-18-20------------------------------|--16-18---------------------------------------|
----------------------------------------------|----------------------------------------------|--17-15-13----------11-13-15----------11-13br-|-----------10-11-13----------10-11-13---------|----------------------------------------------|----------------------------------------------|
----------------------------------------------|----------------------------------------------|----------------------------------------------|--8-10-11-13-15-16-13-15-18-20-18-20-16-18-20-|----------------------------------------------|----------------------------------------------|
-------------------------------------|-------------------------------------|-------------------------------------|--18-18-20-20-18-20----(20)S----x----|-------------------------------------|-------------------------------------|
---------------------------------------------|----------9~---------9~---------9~-----------|--------------------------------------11-10~-|--8-10-11----8-10-11----8-10-11----11--------|---------------------------------------------|---------------------------------------------|
--------------------------------|--------------------------------|--------10S----------(22)--22S--|--------------------------------|--------------------------------|--------------------------------|
---------------------------------------------|----------9~---------9~---------9~-----------|--------------------------------------11-10--|--8-10-11----8-10-11----8-10-11----11--------|---------------------------------------------|---------------------------------------------|
---------------------------------------------|------------------------------------21-19-18-|------------------------17-18-17-18----------|---------------16-18-20----------------------|------16-18-20-------------------------------|---------------------------------------------|
---------------------------------------------|----------9~---------9~---------9~-----------|--------------------------------------11-10~-|--8-10-11----8-10-11----8-10-11----11--------|---------------------------------------------|---------------------------------------------|
------------16--------------------------------|----16b--------16pb~--------------------18-16-|-------------------------13-15-17-18-20-------|----------------------------------------------|----------------------------------------------|----------------------------------------------|
---------------------------------------------|----------9~---------9~---------9~-----------|--------------------------------------11-10~-|--8-10-11----8-10-11----8-10-11----11--------|---------------------------------------------|---------------------------------------------|
-----------------------------------|-----------------------------------|-----------------------------------|-----------------15--16--18br------|--13-15--16--18--------------------|-----------------------------------|
-------16---------------13--13S----23--|--16b-----16pb~-16pb-------------------|---------------------------------------|---------------------------------------|---------------------------------------|---------------------------------------|
---------------------x-----------|---------------------x-----------|---------------------x-----------|---------------------x-----------|-------------------(18)s----1----|--18s--1s--18s--x--(18)s----1----|
--------------------------------|--6-----------------------------|--8b----10S----------(18)--22~--|--------------------------------|--------------------------------|--------------------------------|
----------------16-14-13-------16-13~--|-------------------------16-18---------|--(22)S----x---------------------------|---------------------------------------|---------------------------------------|---------------------------------------|
--------------------------14-14b--14----14-13-|--------------11-13-14-16------------14-------|--11-13-15-17---------------------------------|----------------------------------------------|----------------------------------------------|----------------------------------------------|
----------------------------------------------|--16-16-14-13----------16-14-13---------------|--------------17-15-13----------15-13-11------|-----------------------------------------11-1-|----------------------------------------------|----------------------------------------------|
-----------13-14-16----------13-14-16-16-16-1-|--13-14-16----------13-14-16------------------|----------------------------------------------|----------------------------------------------|----------------------------------------------|----------------------------------------------|
----------------------------------------------|----------------------------------------------|--------------------------------------13-15-1-|-----------13-15-16----------13-15-16---------|--13-15-16----------13-15-16------------------|----------------------------------------------|
--------------------------------|--6-----------------------------|--8b----10S----------(18)--22~--|--------------------------------|--------------------------------|--------------------------------|
---------------------------------------------|---------------------------------------------|--(22)S--x--13-11-11-11-10-10-10-8-8-8-------|---------------------------------------11~---|---------------------------------------------|---------------------------------------------|
--------------------------------|--6-----------------------------|--8b----10S----------(18)--22~--|--------------------------------|--------------------------------|--------------------------------|
---------------------------------|---------------------------------|-------22S--(18)S--(22)----22----|---------------------------------|---------------------------------|---------------------------------|
--------------------------------------|--------------------------------------|--10p-8h-10---10S----------(18)--22~--|--------------------------------------|--------------------------------------|--------------------------------------|
---------------------------------------------|---------------------------------------------|-------22------------------------------------|-----------18-16-18-16-15S-16S-15------------|---------------------------------------------|----------------------------------(1)S--(13)-|
---------------------------------------------|---------------------------------------------|---------------------------------------------|------11-10-11-----11---------------13-15-16-|--13-----------13-----11--13-15s-16----------|---------------------------------------------|
------------------------------|------------------------------|------------------------------|--16s-(18)-18~----------------|------------------------------|------------------------------|
--------------------------9-9-11-11-------9-9-|--------11-11-13-13-----------------13-13-----|--10-10-------------10-10---------------------|----------------------------------------------|----------------------------------------------|----------------------------------------------|
----------------------------------------------|--13-13---------------------------------------|--------13-13-10-10-11-11---------------------|--------------------------11-11-10-10-11-11---|--------------------------------------------1-|----------------------------------------------|
--------------------------9-9----------------|--------------------13-13-----13-13-11-11----|--------13-13-10-10-----------------------13-|--11-11--------------------------------------|---------------------------------------------|---------------------------------------------|
----------------------------------------------|----------------------------------------------|--10-10-11-11---------------------------------|--------------11-11-10-10-11-11-13-13-11-11-1-|----------------------------------------------|----------------------------------------------|
--------------------------------9-9----------|--------------------------13-13-----13-13-11-|--------------13-13-10-10--------------------|--------11-11--------------------------------|--11-11--------------------------------------|---------------------------------------------|
----------------------------------------------|----------------------------------------------|--10-10-13-13-11-11-10-10-11-11---------------|--------------------------------11-11-10-10---|--------------------------------------------1-|----------------------------------------------|
--------------------9-9-11-11-------9-9-------|------------------------------13-13-----13-13-|--------13-13-10-10---------------------------|--11-11---------------------------------------|----------------------------------------------|----------------------------------------------|
--------------------------|--------------------------|--13-13-10-10-11-11-------|--------------------11-11-|--------------------------|--------------------------|
--------------------------------------------|--11-11-------------------------------------|--------10-10-13-13-10-10-11-11-------------|--------------------------------10-10-11-11-|--------------------------------------------|--------------------------------------------|
---------------------------------------|---------------------------------------|---------------------------------------|------11-10-8-10-8-8-10S-11S-13--13----|---------------------------------------|---------------------------------------|
----------------------------------------------|----------------------------------------------|--10-10---------------------------------------|--------11-11-13-13-11-11-10----11----11S-13--|S-----------------------------13----13---------|----------------------------------------------|
--------------------------------------------|--------------------------------------------|----11----11-10-11----11-13-13S-11S--10~----|-------11----------11-----------------------|--------------------------------------------|--------------------------------------------|
---------------------------------------------|----------9~---------9~---------9~-----------|-----------------------------------11--------|--8-10-11----8-10-11----8-10-11-------11-10~-|---------------------------------------------|---------------------------------------------|
------------------------------------|------------------------------------|-----11p-10-------------------------|---------------11-10-8--6-8-10~-----|------------------------------------|------------------------------------|
---------------------------------------------|----------9~---------9~---------9~-----------|--------------------------------------11-10~-|--8-10-11----8-10-11----8-10-11----11--------|---------------------------------------------|---------------------------------------------|
--------------------------------|--------------------------------|-------10S-----------(22)--22S--|--------------------------------|--------------------------------|--------------------------------|
--------------------------------|--------------------------------|--15----15-13-11--10--11--------|--------------------------8~----|--------------------------------|--------------------------------|
----------------------------|----------------------------|----------------------------|--8-8-8-8-8-8--8-8~---------|----------------------------|----------------------------|
---------------------------------------------|--11s-13--13h-14p-13-11----------------------|------------------------13--10h-11h-13-------|----------------------------------------11---|---------------------------------------------|---------------------------------------------|
----------------------------|----------------------------|--10--11--------------------|----------11--11--8---------|----------------------------|----------------------------|
-----------------------------------|-----------------------------------|--13s-15--15--13-11--10--11--------|-----------------------------8~----|-----------------------------------|-----------------------------------|
---------------------------------|---------------------------------|---------------------------------|--10h-11-10--8S-10----11---------|---------------------------------|---------------------------------|
---------------------------------------------|--11s-13--13h-14p-13-11----------------------|------------------------13-13-10-11h-13------|-----------------------------------------11~-|---------------------------------------------|---------------------------------------------|
-----------------------------------|-----------------------------------|-----------------------------------|-------10--11----(11)S--x----------|-----------------------------------|--------------------------(13)S--x-|
---------------------------------------------|----------9~---------9~---------9~-----------|--------------------------------------11-10~-|--8-10-11----8-10-11----8-10-11----11--------|---------------------------------------------|---------------------------------------------|
-------------------------------------|-------------------------------------|-----11p-10--------------------------|---------------11-10-8--6-8s-10~-----|-------------------------------------|-------------------------------------|
---------------------------------------------|----------9~---------9~---------9~-6-11b-----|---------------------------------------------|--8-10-11----8-10-11----8-10-11--------------|---------------------------------------------|---------------------------------------------|
-------------------------------------------|-------13-11-11-9h-11h-13p-11p-9-11--------|------------------------------------10-----|-------------------------------------------|-------------------------------------------|-------------------------------------------|
----------------------------------------|--11-11-11-11----11-11-11-11-9--11------|------------------------------------10--|----------------------------------------|----------------------------------------|----------------------------------------|
--------------------------------------------|--------------------------------------------|-----8--10h-11-----------------8-10-11--13--|---------------11--8-8-10-11-8--------------|--------------------------------------------|--------------------------------------------|
---------------------------------------------|---------11-----------9h-11h-13p-11p-9-11----|--13b----------11s-13---------------------10-|---------------------------------------------|---------------------------------------------|---------------------------------------------|
----------------------------------------------|----------------------------------------------|--------------------------------------11-13-1-|-----------11-13-15----------11-13-15---------|--11-13-15----------11-13-15------------------|----------------------------------------------|
---------------------------------------------|---------11-----------9h-11h-13p-11p-9-11----|--13b----------11s-13---------------------10-|---------------------------------------------|---------------------------------------------|---------------------------------------------|
---------------------------------------------|--------------------------16b-18--16-14-13S--|-----------------------15-15-----------------|----11-11s-13-11-13-13-----------------------|---------------------------------------------|---------------------------------------------|
whammy whammy whammy---------------------------------------------|--<>13---13--14S--<>14---14--16S--<>16---16--|---------------------------------------------|---------------------------------------------|---------------------------------------------|---------------------------------------------|
whammy whammy----------------------------------------|--18S--<>18---18--19S--<>19---19--18----|----------------------------------------|----------------------------------------|----------------------------------------|----------------------------------------|
----------------------------------------------|--16s-18-----18-18-18-18-18-18-18-18-18-18-18-|----------------------------------------------|----------------------------------------------|----------------------------------------------|----------------------------------------------|
----------------------------------------------|--18-18-18-18-18-18-18-18-18-18-18-18-18-18-1-|----------------------------------------------|----------------------------------------------|----------------------------------------------|----------------------------------------------|
----------------------------------------------|--18-18-18-18-18-18-18-18-18-18-18-18-18-18-1-|----------------------------------------------|----------------------------------------------|----------------------------------------------|----------------------------------------------|
---------------------------------------------|--18-18-18-18-18-18-18--18--18-16-14---------|-------------------------------------17-15s--|---------------------------------------------|---------------------------------------------|---------------------------------------------|
During this he repeats one of those fast licks-----|-----|-----|-----|-----|-----|-----|-----|-----|-----|-----|-----|-----|-----|-----|-----|-----|-----|-----|-----|-----|-----|-----|-----|
-----------13-16-18-16-13-16-13---------------|--------14----------------------14----------1-|-----15----------------------------15----15---|--15----------------------------------15------|----------------------------------------------|----------------------------------------------|
I think he does the same thing here--18brb--------|-----|-----|-----|-----|---------------|-----|-----|-----|-----|---------------|-----|-----|-----|-----|---------------|-----|-----|-----|-----|---------------|-----|-----|-----|-----|---------------|-----|-----|-----|-----|
That's it Please rate and comment
Tap to rate this tab
 
# A B C D E F G H I J K L M N O P Q R S T U V W X Y Z