Buckethead - Jordan tab

Artist: Buckethead
Song: Jordan
Tabbed By: Buckethead (Guitar World Magazine)

I honestly think that calling this song "advanced" is a bit of an understatement. 
would be more appropriate.

Gtr I (Eb Ab Db Gb Bb Eb) - 'Untitled'
Gtr II (Eb Ab Db Gb Bb Eb) - 'Untitled'
Gtr III (Eb Ab Db Gb) - 'Untitled'

Q=116 $ 4/4 Gtr I 4x||------------------------------------------||-|||o----------------------------------------o||-|||------------------------------------------||-|||------------------------------------------||-|||o-------------------------------10-12-10-o||-|||--12-0-0-12-0-12-0-12-0-0-10-12-----------||-|
( Using killswitch up 'til guitar break ) |
| Gtr III| 4x||------------------------------------------||-|||o----------------------------------------o||-|||o----------------------------------------o||-|||------------------------------------------||-|
7x||------------------------------------------------||||o----------------------------------------------o||||------------------------------------------------||||------------------------------------------------||||o-------------------------------------10-12-10-o||||--12-0-0-12---0--12-0-12---0--0-10-12-----------||
|
| 7x||------------------------------------------------||||o----------------------------------------------o||||o-------------------------------------10-12-10-o||||--12-----12-(12)-12---12-(12)---10--------------||
|-----------------------------------------||---------------------------------||-----------------------------------------||o--------------------------------||-----------------------------------------||---------------------------------||-----------------------------------------||--4-4----------------------------||-----------------------------------------||o--------------------------------||-12-0-0-12-(12)-12-12-12-12-12-12-12-12--||------2-2--3--(3)-3--3--0-0--0-0-|
|
|-----------------------------------------||---------------------------------||-----------------------------------------||o--------------------------------||-----------------------------------------||o-9---9---10-(10)---10-----------||-----------------------------------------||-----------------------12---12---|
|--------------------------------------|--------------------------------||--------------------------------------|--------------------------------||--------------------------------------|--------------------------------||-4-4-4--------------------------------|-4-4----------------------------||-------------------------------2--2-2-|-----------------------2-2--2-2-||-------2-2-2--3-3---3--3--3-3--0--0-0-|-----2-2--3--(3)-3--3--0-0--0-0-|
|
|--------------------------------------|--------------------------------||--------------------------------------|--------------------------------||-9-------9---10---(10)---10-----------|-9---9---10-(10)---10-----------||------------------------------12-12---|----------------------12---12---|
D.S.|----------------------------------------|||---------------------------------------o|||----------------------------------------|||-4-4-4----------------------------------|||-------------------------------2--2----o|||-------2-2-2--3-3---3--3--3-3--0--0-----||
|
|----------------------------------------|||---------------------------------------o|||-9-------9---10---(10)---10------------o|||------------------------------12-12-----||
Guitar Break-|----------------------------------16-------17----------------18----------||-------------------------16----15-------16----------17----17----------18-||----------------16----15----14-------15----------16----16----------17----||-------16----15----14-------------------------15----------------16-------||----15----14-------------------------------------------------------------||-14----------------------------------------------------------------------|
|
|-------------------------------------------------------------------------||-------------------------------------------------------------------------||-------------------------------------------------------------------------||-------------------------------------------------------------------------|
~~|----------------------------------19-------20-------21-22---||-------------------------19----18-------19-------20----21---||----------------19----18----17-------18-------19------------||-------19----18----17---------------------------------------||----18----17------------------------------------------------||-17---------------------------------------------------------|
|
|------------------------------------------------------------||------------------------------------------------------------||------------------------------------------------------------||------------------------------------------------------------|
Guitar Solo-
F#5|--------------------------|---------------------------------------------||-17-----------------------|---------------------------------------------||-16b18r=====(16)-14-16-14-|-14-13b14==(13)r(13)-------------------------||--------------------------|---------------------16-14-------------------||--------------------------|---------------------------16-14-12-14-16----||--------------------------|------------------------------------------14-|
|
|--------------------------|---------------------------------------------||--------------------------|---------------------------------------------||--9-----------7-----------|---------------------------------------------||--------------------------|-10----------------------------7--------9----|
~~~~~|-----------------------------------|--------------------------------------------||-------------17b19-(17)-(17)-17p15-|-14h15-17-----------------------------------||-16b18----16-----------------------|----------14-(14)-13h14p13------------------||-----------------------------------|---------------------------16-16-14-14-16---||-----------------------------------|--------------------------------------------||-----------------------------------|--------------------------------------------|
|
|-----------------------------------|--------------------------------------------||-----------------------------------|--------------------------------------------||--9-----------------------7--------|--------------------------------------------||-----------------------------------|-10----------------------7-----------9------|
|-------------------------------------------------||-------------------------------------------------||----14s13----13s14----14-------16-18----18-------||-16----14-14-14s16-16----18-18----19-19----18-18-||-------------------------------------------------||-------------------------------------------------|
|
|-------------------------------------------------||-------------------------------------------------||--9-----------------------------------7----------||-------------------------------------------------|
|---------------------------------------||----------------------------------/18--||-16s14----14-13----13s14-14s16-16------||----16-16----14-14-14s16-16s18-18------||---------------------------------------||---------------------------------------|
|
|---------------------------------------||---------------------------------------||---------------------------------------||-10-----------------------7-----9------|
|-21-17----21-17----19-16----19-16----17-14----17-14----16-12----16-12----||-------19-------17-------17-------17-------14-------14-------12-------12-||-------------------------------------------------------------------------||-------------------------------------------------------------------------||-------------------------------------------------------------------------||-------------------------------------------------------------------------|
|
|-------------------------------------------------------------------------||-------------------------------------------------------------------------||--9-----------------------------------------------------7----------------||-------------------------------------------------------------------------|
|-14-10----14-10----12-9----12-9-14-10-7---10-7-------------||-------10-------12------10--------------7------7-----------||-----------------------------------------------------------||-----------------------------------------------------------||-------------------------------------------------/12b14\---||-----------------------------------------------------------|
|
|-----------------------------------------------------------||-----------------------------------------------------------||-----------------------------------------------------------||-10---------------------------------7--------------9-------|
|------------------------------------------||----------------------------------18tr12--||--------------------------18tr12----------||------------------17tr12------------------||----------17tr12--------------------------||-10-12-11---------------------------------|
|
|------------------------------------------||------------------------------------------||-10---------------------------------------||------------------------------------------|
|-18tr12--19tr13---------------------------------------------------||-----------------19tr13---13\-------------------------------------||------------------------------------------------------------------||----------------------------------17-12---------------------------||----------------------------------------16-12-11------------------||-------------------------------------------------19-15-18-14-13---|
|
|------------------------------------------------------------------||------------------------------------------------------------------||-11---------------------------------------------------------------||-------------------------/13---12---------------------------------|
|------------------------------20tr15---|-21tr16-------------------------------||----------------------20tr15-----------|---------20tr15-----------------------||---------------20tr15------------------|-----------------19tr14---------------||--------20tr15-------------------------|--------------------------------------||-20tr15--------------------------------|-------------------------/10b12-(10)\-||---------------------------------------|--------------------------------------|
|
|---------------------------------------|--------------------------------------||---------------------------------------|--------------------------------------||-10------------------------------------|-11-----------------------------------||---------------------------------------|--------------------------------------|
|---------------------------------------------------------------------||---------------------------------------------------------------------||-----------------------------------------------------20tr15----------||------------------------------------------18-0-13-16-----------------||---------------------------10-12-16-10-12----------------------------||--9-12-14-9-12-15-10-12-17-----------------------------------19tr14--|
|
|---------------------------------------------------------------------||---------------------------------------------------------------------||-10------------------------------------------------------------------||---------------------------------------------------------------------|
|----------------------------------20tr15----21tr16---||--------------------------20tr15---------------------||-----------------20tr15------------------------------||---------19tr14--------------------------------------||-18tr13----------------------------------------------||-----------------------------------------------------|
|
|-----------------------------------------------------||-----------------------------------------------------||-11--------------------------------------------------||-------------------------/13-------------12----------|
|--------21tr16-------------|------------------------------------------||-20tr15----------20tr15----|-14tr8-14tr9-14tr10-14tr11-14tr12--(12)\--||---------------------------|------------------------------------------||---------------------------|------------------------------------------||---------------------------|------------------------------------------||---------------------------|------------------------------------------|
|
|---------------------------|------------------------------------------||---------------------------|------------------------------------------||-10------------------------|-11---------------------------------------||---------------------------|------------------------------------------|
|-17b19r(17)-16-17-16-14----14-17-14-16-17-16-14----------------------------------||------------------------17----------------------17-15-14-15-14-14-15-14-12-------||---------------------------------------------------------------------------14-13-||---------------------------------------------------------------------------------||---------------------------------------------------------------------------------||---------------------------------------------------------------------------------|
|
|---------------------------------------------------------------------------------||---------------------------------------------------------------------------------||--9------------------------------------------------------------------------------||---------------------------------------------------------------------------------|
|-------------------------------------------------------------------------------------------------||-------------------------------------------------------------------------------------------------||-14-13-11----11-14-11-13h14p13p11----------------------------------------------------------------||----------14----------------------14-12-11-14-12-14-12-------------------------------------------||-------------------------------------------------------16-14-12----------------------------------||----------------------------------------------------------------16-14b17==(14)r(14)-12-14-16-12--|
|
|-------------------------------------------------------------------------------------------------||-------------------------------------------------------------------------------------------------||-------------------------------------------------------------------------------------------------||-10--------------------------------------------7-------------------------------------------------|
|------------------------------------------------------------------------14-16-17-(17)-16-14------||------------------------------------------------------14-15-17-14-15-17---------------------17---||------------------------------------13h14h16-13h14-17--------------------------------------------||-------------12-x-12h14h16-12-14-16--------------------------------------------------------------||-12-12-14-16-------------------------------------------------------------------------------------||-------------------------------------------------------------------------------------------------|
|
|-------------------------------------------------------------------------------------------------||-------------------------------------------------------------------------------------------------||--9----------------------------------------------------------------------------------------------||-------------------------------------------------------------------------------------------------|
TP|-------------14-17-14-16-17-16-14----------------14-16-17-16-14----------------||-15-14-15-17----------------------17-15-14-15-17----------------17-15-14-16\-0-||-----------------------------------------------------------------------------0-||-------------------------------------------------------------------------------||-------------------------------------------------------------------------------||-------------------------------------------------------------------------------|
|
|-------------------------------------------------------------------------------||-------------------------------------------------------------------------------||-------------------------------------------------------------------------------||-10-----------------------------------------7----------------------------------|
|-/11-13-14-14-(14)-13-11----11-14-11-13-14p13-11------------------------------------------------||-------------------------14----------------------14-12s10-12-11-12-11-9-------------------------||------------------------------------------------------------------------11-10-10-11-10-8----8---||-----------------------------------------------------------------------------------------11-----||------------------------------------------------------------------------------------------------||------------------------------------------------------------------------------------------------|
|
|------------------------------------------------------------------------------------------------||------------------------------------------------------------------------------------------------||------------------------------------------------------------------------------------------------||--11---------------------------------------------------------------------9----------------------|
|----------------------------------------------------------------------------||----------------------------------------------------------------------------||-11-8-10-11-10-8------------------------------------------------------------||-----------------11-9-9-11-9-11-11-9-8--------------------------------------||---------------------------------------11-9-8-------------------------------||----------------------------------------------11b14-11-(11)-9-11-13-9-11-13-|
|
|----------------------------------------------------------------------------||----------------------------------------------------------------------------||----------------------------------------------------------------------------||--7------------------------------------------------------9------------------|
|----------------------------------------------------------------------11-13-11----11-14--||----------------------------------------------------11-12-14-11-12-14----------14--------||----------------------------------10-11-13-10-12-14--------------------------------------||------------------9-11-13-9-11-13--------------------------------------------------------||--9-11-13-9-11-13------------------------------------------------------------------------||-----------------------------------------------------------------------------------------|
|
|-----------------------------------------------------------------------------------------||-----------------------------------------------------------------------------------------||-----------------------------------------------------------------------------------------||-11--------------------------------------------------------------9-----------------------|
|-11-13-14-13-11----------------11-13-14----------11-14-11-13-14-13-11----11-14-11-13-11--||----------------14-12-11-12-14----------11-12-14----------------------14-----------------||-----------------------------------------------------------------------------------------||-----------------------------------------------------------------------------------------||-----------------------------------------------------------------------------------------||-----------------------------------------------------------------------------------------|
|
|-----------------------------------------------------------------------------------------||-----------------------------------------------------------------------------------------||-----------------------------------------------------------------------------------------||--7----------------------------------------------------------------11--------------------|
|-------------------------------------------------------||-14b16r=(14)b16-(14)-(14)-14b16==(14)r(14)-12-14-12-11-||-------------------------------------------------------||-------------------------------------------------------||-------------------------------------------------------||-------------------------------------------------------|
|
|-------------------------------------------------------||-------------------------------------------------------||-------------------------------------------------------||-11--------------------------------9-------------------|
|-----------------------------------------------||-11-12h14--------------------------------------||----------11-(11)-10-11-10---------------------||---------------------------13-13-11------------||------------------------------------13s11-9-11-||-----------------------------------------------|
|
|-----------------------------------------------||-----------------------------------------------||-----------------------------------------------||--7-------------------------------------9------|
|----------------------------|-----------------||----------------------------|-----------------||-------------------------1s=|=15s===22--------||----------------------------|-----------------||-13----------11-13-(13)\----|----------x\-----||----11-11h14----------------|----------x\-----|
|
|----------------------------|-----------------||----------------------------|-----------------||----------------------------|-----------------||-11----------------------9--|--7----------11--|
|------------------------------------------------------|-------------------2---------------||------------------------------------------------------|------------------------2-5--------||-----4b6r===(4)b6==(4)r(4)b6==(4)r====(4)b6r===(4)b6==|====(4)r======(4)-----------4pb5-4-||------------------------------------------------------|-----------------------------------||------------------------------------------------------|-----------------------------------||------------------------------------------------------|-----------------------------------|
|
|------------------------------------------------------|-----------------------------------||------------------------------------------------------|-----------------------------------||----------------------------------12-(12)---14--------|-----------------------------------||-12h14---12-14----------------------------------------|-12h14--12-14--------12------------|
~~~~~~|-----------------------------------------|-----------------------||-----------------------------------------|-----------------------||-----2b5==(2)r===(2)---------------------|---------------4-(4)---||----------------------4------------------|-----------------------||-------------------------2---2b3=====(2)-|-(2)r=(2)--(2)---------||-----------------------------------------|-----------------------|
|
|-----------------------------------------|-----------------------||-----------------------------------------|-----------------------||------------------------12-(12)---14-----|-15--------14----12----||-12h14--------12-14----------------------|-----------------------|
|---------------------------------------|---------------------------------||---------------------------------------|----17b19=====(17)r--17----17----||----16b18----14--(14)-(14)---------0-0-|------------------------------14-||-----------------------------------0-0-|---------------------------------||---------------------------------------|---------------------------------||---------------------------------------|---------------------------------|
|
|---------------------------------------|---------------------------------||---------------------------------------|---------------------------------||-----------------------12--(12)-14-----|---------------------------------||-12h14----12-14------------------------|-12h14-----12--14-------12-------|
|---------------------------------------------------|--------------------------------------------||---------------------------------------------------|--------------------------------------------||---------------------------------------------------|-------14-(14)b16==(14)r(14)-(14)--(14)-----||----16-14------------------------------------------|-14-16----------------------------------7/--||-------------15-14-15-14-12----14-----12--14-14-16-|--------------------------------------------||----------------------------14----14---------------|--------------------------------------------|
|
|---------------------------------------------------|--------------------------------------------||---------------------------------------------------|--------------------------------------------||-------------------------------12----(12)-14-------|-15---------------------------14----12------||-12h14----12----14---------------------------------|--------------------------------------------|
|-------------------------------------------------||-------------------------------------------------||-------------------------------------------------||-------------------------------------13-13-------||-------------13-13-13-13-------------------14-14-||-11-11-11-11-------------14-14-14-14-------------|
|
|-------------------------------------------------||-------------------------------------------------||-------------------------------------------------||-11-----------------------------------9----------|
|-------------------------13-13-14-14-11-11--------||-------------14-14-11-11-------------------14-14--||-11-11-11-10--------------------------------------||--------------------------------------------------||--------------------------------------------------||--------------------------------------------------|
|
|--------------------------------------------------||--------------------------------------------------||--------------------------------------------------||--7-----------------------------------9-----------|
|-11-11-------------------------------------------||-------------11-11-------------------------------||-------13-13-------11-11-10-10-------------------||-------------------------------13-13-11-11-------||-------------------------------------------13-13-||-------------------------------------------------|
|
|-------------------------------------------------||-------------------------------------------------||-------------------------------------------------||-11-----------------------------------9----------|
|--------------------------------------------------------||--------------------------------------------------------||--------------------------------------------------------||-11-11-11-11-11-11-13-13--------------------------------||-------------------------14-14-13b14==(13)r(13)-(13)\---||--------------------------------------------------------|
|
|--------------------------------------------------------||--------------------------------------------------------||--------------------------------------------------------||--7------------------------------------------9----------|
|--------------------------------------------------------------------------------------------||-10-----------------------10-12-10------10-14-10-12-14-12-10----------14p12p10---------14---||----11h13-9h11h13-9h11h13----------13-9----------------------13-11--9----------13p11p9------||--------------------------------------------------------------------------------------------||--------------------------------------------------------------------------------------------||--------------------------------------------------------------------------------------------|
|
|--------------------------------------------------------------------------------------------||--------------------------------------------------------------------------------------------||-------------------------------------------------------------------12-----------------------||-14-----------------------------------------------------------------------------------------|
|--------------------------------------9-10-9----9-12-9-10-12-10-9-------------------||-12-10----------------9h10h12-9h10h12--------12-------------------12-11-(11)s15-17--||-------13-10-12-10-11---------------------------------------------------------------||------------------------------------------------------------------------------------||------------------------------------------------------------------------------------||------------------------------------------------------------------------------------|
|
|------------------------------------------------------------------------------------||------------------------------------------------------------------------------------||-------------------------------------------------------------12---------------------||-12---------------------------------------------------------------------------------|
|-14-16p14----14-17-14-16-17-16-14----------------14-16-17----------14-17-14-16-17-16-14--------------||----------17----------------------17-15-14-15-17----------14-15-17----------------------18-18-16-16--||-----------------------------------------------------------------------------------------------------||-----------------------------------------------------------------------------------------------------||-----------------------------------------------------------------------------------------------------||-----------------------------------------------------------------------------------------------------|
|
|-----------------------------------------------------------------------------------------------------||-----------------------------------------------------------------------------------------------------||-----------------------------------------------------------------------------------------------------||-10--------------------------------------------------------------------------------------------------|
|-------19----16-17-19----------16-19-19-19-17-19-17S16-16-17-16h17-17-16-14----------14-----||-17-19----19----------16-17-19----------------------------------------------17-14-14----17--||--------------------------------------------------------------------------------------------||--------------------------------------------------------------------------------------------||--------------------------------------------------------------------------------------------||--------------------------------------------------------------------------------------------|
|
|--------------------------------------------------------------------------------------------||--------------------------------------------------------------------------------------------||--------------------------------------------------------------------------------------------||-12-----------------------------------------------------------------------------------------|
Gtr I||---------------------------------------------------------------------------|||o-19---------------------------------------------------(19)\---------------|||---------------------------------------------------------------------------|||---------------------------------------------------------------------------|||o--------------------------------------------------------------------------|||---------------------------------------------------------------------------|
| Bridge-
| Gtr II||--14----------------------------------14----------------17-----------------|||o----------14----------------14----------------14------------------17------|||-----11-11----11-11-14-11-11----11-11----11-11----11-x-------14-14----14-x-|||---------------------------------------------------------------------------|||o--------------------------------------------------------------------------|||---------------------------------------------------------------------------|
|
| Gtr III||---------------------------------------------------------------------------|||o--------------------------------------------------------------------------|||o-------------------------------------------------------12-----------------|||--14-----------------------------------------------------------------------|
|-------------------------------------------------------------------||-------------------------------------------------------------------||-------------------------------------------------------------------||-------------------------------------------------------------------||-------------------------------------------------------------------||-------------------------------------------------------------------|
|
|-14---------------------------------12------------10---------------||----------14----------------14-------------12------------10--------||----11-11----11-11-14-11-11----11-9----9-9----9-7----7-7----7-x----||-------------------------------------------------------------------||-------------------------------------------------------------------||-------------------------------------------------------------------|
|
|-------------------------------------------------------------------||-------------------------------------------------------------------||-------------------------------------------------------------------||-14-----------------------------------------------12---------------|
|-14----------------------------------14---------------17---------------||----------14----------------14----------------14---------------17------||----11-11----11-11-14-11-11----11-11----11-11----11-x----14-14----14-x-||-----------------------------------------------------------------------||-----------------------------------------------------------------------||-----------------------------------------------------------------------|
|
| Gtr III|-----------------------------------------------------------------------||-----------------------------------------------------------------------||------------------------------------------------------12---------------||-14--------------------------------------------------------------------|
|-12----------------------------10------------------------------|||--------12--------------12------------10--------------10------o|||----9-9----9-9--13--9-9----9-7----7-7----7-7--11--7-7----7-x---|||---------------------------------------------------------------|||--------------------------------------------------------------o|||---------------------------------------------------------------||
|
|---------------------------------------------------------------|||--------------------------------------------------------------o|||--------------------------------------------------------------o|||-12------------(12)------------10------------(10)--------------||
Outro (Killswitch)-||---------------------------------|--------------------------------------|||o--------------------------------|--------------------------------------|||---------------------------------|--------------------------------------|||--4-4----------------------------|-4-4-4--------------------------------|||o--------------------------------|-------------------------------2--2-2-|||------2-2--3--(3)-3--3--0-0--0-0-|-------2-2-2--3-3---3--3--3-3--0--0-0-|
|
||---------------------------------|--------------------------------------|||o--------------------------------|--------------------------------------|||o-9---9---10-(10)---10-----------|-9-------9---10---(10)---10-----------|||-----------------------12---12---|------------------------------12-12---|
4x|--------------------------------|--------------------------------------|||--------------------------------|-------------------------------------o|||--------------------------------|--------------------------------------|||-4-4----------------------------|-4-4-4--------------------------------|||-----------------------2-2--2-2-|-------------------------------2--2--o|||-----2-2--3--(3)-3--3--0-0--0-0-|-------2-2-2--3-3---3--3--3-3--0--0---||
|
| 4x|--------------------------------|--------------------------------------|||--------------------------------|-------------------------------------o|||-9---9---10-(10)---10-----------|-9-------9---10---(10)---10----------o|||----------------------12---12---|------------------------------12-12---||
**********
Tap to rate this tab
 
# A B C D E F G H I J K L M N O P Q R S T U V W X Y Z