Bullet For My Valentine - Begging For Mercy tab

Another amazing song off of their new album, "Fever". This is on the borderline of advanced but I left it at intermediate.

The solo tab that's on the site was actually very accurate, but there were a few notes missing and the tapping part was off a little. But otherwise kudos to the dude who posted it, scarily accurate for by ear =]. It helped me a lot!

Bullet for My Valentine
"Begging for Mercy"
Fever


INTRO Part 1---Guitar 1:(0:00)"YEAH!!!"|-------------------------------------------||-------------------------------------------||-------------------------------------------||-------------------------------------------||-------3-----3-----3-----3-----3---3h5p3p0-||-12\\----0-0---0-0---0-0---0-0---0---------| . . . . . . . . .
(0:04)|-------------------------------------------------||-------------------------------------------------||-------------------------------------------------||-----------------3h5p3p0-2h3p2p0-----------------||-3-----3-----3-------------------3h5p3p0---------||---0-0---0-0---0-------------------------3h5p3p0-| . . . . .
(0:06)|-------------------------------------||-------------------------------------||-------------------------------------||-------------------------------------||-3-----3-----3-----3-----3---3h5p3p0-||---0-0---0-0---0-0---0-0---0---------| . . . . . . . . .
(0:09)|-------------------------------------------------||-------------------------------------------------||-------------------------------------------------||-----------------7h8p7p0-5h7p5p0-3h5p3p0---------||-3-----3-----3-----------------------------------||---0-0---0-0---0-------------------------3h5p3p0-| . . . . .
Guitar 2:(0:00)|-------------------------------------------||-------------------------------------------||-------------------------------------------||-------------------------------------------||-----------------------------------3h5p3p0-||-12\\--------------------------------------|
(0:04)|-------------------------------------------------||-------------------------------------------------||-------------------------------------------------||-------------------------------------------------||-------------------------------------------------||-------------------------------------------------|
(0:06)|-------------------------------------||-------------------------------------||-------------------------------------||-------------------------------------||-3-----3-----3-----3-----3---3h5p3p0-||---0-0---0-0---0-0---0-0---0---------| . . . . . . . . .
(0:09)|-------------------------------------------------||-------------------------------------------------||-------------------------------------------------||-----------------3h5p3p0-2h3p2p0-----------------||-3-----3-----3-------------------3h5p3p0---------||---0-0---0-0---0-------------------------3h5p3p0-| . . . . .
INTRO Part 2---Guitar 1:(0:12)"OHH!"|-------------------------------------||-------------------------------------||-------------------------------------||-------------------------------------||-3-----3-----3-----3-----3---3h5p3p0-||---0-0---0-0---0-0---0-0---0---------| . . . . . . . . .
(0:14)|-------------------------------------------------||-------------------------------------------------||-------------------------------------------------||-----------------3h5p3p0-2h3p2p0-----------------||-3-----3-----3-------------------3h5p3p0---------||---0-0---0-0---0-------------------------3h5p3p0-| . . . . .
(0:17)|-------------------------------------||-------------------------------------||-------------------------------------||-------------------------------------||-3-----3-----3-----3-----3---3h5p3p0-||---0-0---0-0---0-0---0-0---0---------| . . . . . . . . .
(0:19)"When will we..."|-----------------||-----------------||-5-5-5-5-5-5-5-5-||-x-x-x-x-x-x-x-x-||-3-3-3-3-3-3-3-3-||-----------------|
Guitar 2:(0:12)|-------------------------------------||-------------------------------------||-------------------------------------||-------------------------------------||-3-----3-----3-----3-----3---3h5p3p0-||---0-0---0-0---0-0---0-0---0---------| . . . . . . . . .
(0:14)|-------------------------------------------------||-------------------------------------------------||-------------------------------------------------||-----------------3h5p3p0-2h3p2p0-----------------||-3-----3-----3-------------------3h5p3p0---------||---0-0---0-0---0-------------------------3h5p3p0-| . . . . .
(0:17)|-------------------------------------||-------------------------------------||-------------------------------------||-------------------------------------||-3-----3-----3-----3-----3---3h5p3p0-||---0-0---0-0---0-0---0-0---0---------| . . . . . . . . .
(0:19)|-----------------||-----------------||-----------------||-----------------||-----------------||-----------------|
VERSE 1---Guitar 1:"break it off, with just one..."(0:22)|-------------------------------------||-------------------------------------||-------------------------------------||-------------------------------------||-3-----3-----3-----3-----3---3h5p3p0-||---0-0---0-0---0-0---0-0---0---------| . . . . . . . . .
(0:25)"thing in mind..."|-------------------------------------------------||-------------------------------------------------||-------------------------------------------------||-----------------3h5p3p0-2h3p2p0-----------------||-3-----3-----3-------------------3h5p3p0---------||---0-0---0-0---0-------------------------3h5p3p0-| . . . . .
(0:27)"Eyes sewn shut, so tear them..."|-------------------------------------||-------------------------------------||-------------------------------------||-------------------------------------||-3-----3-----3-----3-----3---3h5p3p0-||---0-0---0-0---0-0---0-0---0---------| . . . . . . . . .
(0:30)"open wide..."|-------------------------------------------------||-------------------------------------------------||-------------------------------------------------||-----------------3h5p3p0-2h3p2p0-----------------||-3-----3-----3-------------------3h5p3p0---------||---0-0---0-0---0-------------------------3h5p3p0-| . . . . .
(0:33)"I'm on the hunt, I'm on the..."|-------------------------------------||-------------------------------------||-------------------------------------||-------------------------------------||-3-----3-----3-----3-----3---3h5p3p0-||---0-0---0-0---0-0---0-0---0---------| . . . . . . . . .
(0:35)"prowl, I can almost taste you now..."|-------------------------------------------------||-------------------------------------------------||-------------------------------------------------||-----------------7h8p7p0-5h7p5p0-3h5p3p0---------||-3-----3-----3-----------------------------------||---0-0---0-0---0-------------------------3h5p3p0-| . . . . .
(0:38)"I'm on your scent, I'll track you..."|-------------------------------------||-------------------------------------||-------------------------------------||-------------------------------------||-3-----3-----3-----3-----3---3h5p3p0-||---0-0---0-0---0-0---0-0---0---------| . . . . . . . . .
(0:40)"down, I want you now..."|-------------------------------------------------||-------------------------------------------------||-------------------------------------------------||-----------------7h8p7p0-5h7p5p0-3h5p3p0---------||-3-----3-----3-----------------------------------||---0-0---0-0---0-------------------------3h5p3p0-| . . . . .
Guitar 2:(0:22)|-------------------------------------||-------------------------------------||-------------------------------------||-------------------------------------||-3-----3-----3-----3-----3---3h5p3p0-||---0-0---0-0---0-0---0-0---0---------| . . . . . . . . .
(0:25)|-------------------------------------------------||-------------------------------------------------||-------------------------------------------------||-----------------3h5p3p0-2h3p2p0-----------------||-3-----3-----3-------------------3h5p3p0---------||---0-0---0-0---0-------------------------3h5p3p0-| . . . . .
(0:27)|-------------------------------------||-------------------------------------||-------------------------------------||-------------------------------------||-3-----3-----3-----3-----3---3h5p3p0-||---0-0---0-0---0-0---0-0---0---------| . . . . . . . . .
(0:30)|-------------------------------------------------||-------------------------------------------------||-------------------------------------------------||-----------------3h5p3p0-2h3p2p0-----------------||-3-----3-----3-------------------3h5p3p0---------||---0-0---0-0---0-------------------------3h5p3p0-| . . . . .
(0:33)|-------------------------------------||-------------------------------------||-------------------------------------||-------------------------------------||-3-----3-----3-----3-----3---3h5p3p0-||---0-0---0-0---0-0---0-0---0---------| . . . . . . . . .
(0:35)|-------------------------------------------------||-------------------------------------------------||-------------------------------------------------||-----------------3h5p3p0-2h3p2p0-----------------||-3-----3-----3-------------------3h5p3p0---------||---0-0---0-0---0-------------------------3h5p3p0-| . . . . .
(0:38)|-------------------------------------||-------------------------------------||-------------------------------------||-------------------------------------||-3-----3-----3-----3-----3---3h5p3p0-||---0-0---0-0---0-0---0-0---0---------| . . . . . . . . .
(0:40)|-------------------------------------------------||-------------------------------------------------||-------------------------------------------------||-----------------3h5p3p0-2h3p2p0-----------------||-3-----3-----3-------------------3h5p3p0---------||---0-0---0-0---0-------------------------3h5p3p0-| . . . . .
PRECHORUS---Both guitars:(0:43)"Drain your blood..."|---------------------------------||---------------------------------||---------------------------------||-1-----1-----1-----1-----3---3---||-1-1-1-1-1-1-1-1-1-1-1-1-3-3-3-3-||-1-1-1-1-1-1-1-1-1-1-1-1-3-3-3-3-| . . . . . . . . . .
(0:46)"watch it pour..."|---------------------------------||---------------------------------||---------------------------------||-1-----1-----1-----1-----0---0---||-1-1-1-1-1-1-1-1-1-1-1-1-0-0-0-0-||-1-1-1-1-1-1-1-1-1-1-1-1-0-0-0-0-| . . . . . . . . . .
(0:48)"Drain your blood..."|---------------------------------------||---------------------------------------||---------------------------------------||-1------1------1------1------3----3----||-1-1111-1-1111-1-1111-1-1111-3-33-3-33-||-1-1111-1-1111-1-1111-1-1111-3-33-3-33-| .... .... .... .... .. ..
(0:51)"pain no more..."|------------------------------------||------------------------------------||--------------------5-5-5-5-5-5-5-5-||-1------1------1----x-x-x-x-x-x-x-x-||-1-1111-1-1111-1-1--3-3-3-3-3-3-3-3-||-1-1111-1-1111-1-1------------------| .... .... .
CHORUS---Both guitars:(0:54)"Please forgive me..."|-------------------------------||-------------------------------||-7~----------7~----------------||-x-----0~----x-----0~----------||-5~--0-0~--0-5~--0-0~--0-0-0-0-||-----0-0~--0-----0-0~--0-0-0-0-| . . . . . . .
(0:56)"I don't know what I'm doing..."|---------------------------||---------------------------||---7~------5-5-5-5-5-5-5-5-||---x---0~--x-x-x-x-x-x-x-x-||-0-5~--0~--3-3-3-3-3-3-3-3-||-0-----0~------------------| .
(0:59)"Someone help me..."|-------------------------------||-------------------------------||-7~----------7~----------------||-x-----0~----x-----0~----------||-5~--0-0~--0-5~--0-0~--0-0-0-0-||-----0-0~--0-----0-0~--0-0-0-0-| . . . . . . .
(1:01)"Start begging for your mercy..."|--------------------------||--------------------------||-------------5~~~~--------||-3~~~~-------5~~~~--------||-3~~~~-------3~~~~--------||-3~~~~--------------------|
(1:04)"Please forgive me..."|-------------------------------||-------------------------------||-7~----------7~----------------||-x-----0~----x-----0~----------||-5~--0-0~--0-5~--0-0~--0-0-0-0-||-----0-0~--0-----0-0~--0-0-0-0-| . . . . . . .
(1:07)"I don't know what I'm doing..."|---------------------------||---------------------------||---7~------5-5-5-5-5-5-5-5-||---x---0~--x-x-x-x-x-x-x-x-||-0-5~--0~--3-3-3-3-3-3-3-3-||-0-----0~------------------| .
(1:09)"Someone help me..."|-------------------------------||-------------------------------||-7~----------7~----------------||-x-----0~----x-----0~----------||-5~--0-0~--0-5~--0-0~--0-0-0-0-||-----0-0~--0-----0-0~--0-0-0-0-| . . . . . . .
(1:12)"Start begging for your mercy..."|--------------------------||--------------------------||-------------5~~~~--------||-3~~~~-------5~~~~--------||-3~~~~-------3~~~~--------||-3~~~~--------------------|
POSTCHORUS--- [repeat INTRO Part 2] (1:15-1:25) VERSE 2--- [repeat VERSE 1] (1:25-1:46) "Can you feel the pain?... Let's split our face around you... Do you wanna scream?... Let it out 'cause no one can hear you... (<-- at the "hear you", go silent.) I'm on the hunt, I'm on the prowl... I can almost taste you now... I'm on your scent, I'll track you down... I'll track you down..." PRECHORUS--- [repeat PRECHORUS] (1:46-1:56) "Drain your blood... Watch it pour... Drain your blood... Pain no more..." CHORUS--- [repeat CHORUS] (1:57-2:18) "Please forgive me... I don't know what I'm doing... Someone help me... Start begging for your mercy... Please forgive me... I don't know what I'm doing... Someone help me... Start begging for your mercy..."
SOLO Number One--- WITH WAH PEDAL.Guitar 1:(2:18)|---------------------------------------||---------------------------------------||-----9v~------10v~------12v~------14v~-||---------------------------------------||-0~-------0~--------0~--------0~-------||---------------------------------------|
(2:23)|-------------------------------------------------||-------------------------------------------------||-----9v~------10v~------12v~--12-14-12--10-12-10-||-------------------------------------------------||-0~-------0~--------0~---------------------------||-------------------------------------------------|
(2:39)|---------------------------------------||---------------------------------------||-----9v~------10v~------12v~------14v~-||---------------------------------------||-0~-------0~--------0~--------0~-------||---------------------------------------|
(2:34)|-------------------------------------------------||-------------------------------------------------||-----9v~------10v~------12v~--12-14-12--10-12-10-||-------------------------------------------------||-0~-------0~--------0~---------------------------||-------------------------------------------------|
Guitar 2:(2:18)|--------------------------------------------------------||--------------------------------------------------------||--------------------------------------------------------||--------------------------------------------------------||-0-0-0-0--0--0-0-0-0-0--0--0-0-0-0-0--0--0-0-0-0--0-0-0-||-0-0-0-0--0--0-0-0-0-0--0--0-0-0-0-0--0--0-0-0-0--0-0-0-| . . . . . . . . . . . . . . . . . . . . . . . .
(2:23)|--------------------------------------------------------||--------------------------------------------------------||--------------------------------------------------------||--------------------------------------------------------||-0-0-0-0--0--0-0-0-0-0--0--0-0-0-0-0--0--0-0-0-0--0-0-0-||-0-0-0-0--0--0-0-0-0-0--0--0-0-0-0-0--0--0-0-0-0--0-0-0-| . . . . . . . . . . . . . . . . . . . . . . . .
(2:29)|--------------------------------------------------------------||--------------------------------------------------------------||--------------------------------------------------------------||--------------------------------------------------------------||-0-0-0-0~--0~--0-0-0-0-0~--0~--0-0-0-0-0~--0~--0-0-0-0--0-0-0-||-0-0-0-0~--0~--0-0-0-0-0~--0~--0-0-0-0-0~--0~--0-0-0-0--0-0-0-| . . . . . . . . . . . . . . . . . . . . . . . .
(2:34)|--------------------------------------------------------------||--------------------------------------------------------------||--------------------------------------------------------------||--------------------------------------------------------------||-0-0-0-0~--0~--0-0-0-0-0~--0~--0-0-0-0-0~--0~--0-0-0-0--0-0-0-||-0-0-0-0~--0~--0-0-0-0-0~--0~--0-0-0-0-0~--0~--0-0-0-0--0-0-0-| . . . . . . . . . . . . . . . . . . . . . . . .
PRESOLO---Guitar 1:(2:39)"Drain your blood..."|--------||--------||-10~~~~-||-12~~~~-||--------||--------|
(2:42)"Watch it pour..."|------||------||-~~~~-||-~~~~-||------||------|
(2:44)"Drain your blood..."|---------||---------||---------||-\\\\\\\-||-\\\\\\\-||-\\\\\\\-|
(2:47)"Pain no more..."|---------||---------||---------||-\\\\\\\-||-\\\\\\\-||-\\\\\\\-| <-- unknown pinch harmonic at the end.
Guitar 2:(2:39)|--------||--------||--------||--------||--------||--------|
(2:42)|------||------||------||------||------||------|
(2:44)|-------------------------------------||-------------------------------------||-------------------------------------||-------------------------------------||-3-----3-----3-----3-----3---3h5p3p0-||---0-0---0-0---0-0---0-0---0---------| . . . . . . . . .
(2:47)|-----------------------------||-----------------------------||-----------------------------||-----------------------------||-3-----3-----3-----3-----3---||---0-0---0-0---0-0---0-0---0-| <-- unknown pinch harmonic at the end. . . . . . . . . .
SOLO Number Two--- WITH WAH PEDAL.Guitar 1:(2:50)|----------11--10---11p10p8--------------------------||-----10v~-14b-13b----------11p10p8-7h8h10-8p7-------||-7v~------------------------------------------8-7*--||----------------------------------------------------||----------------------------------------------------||----------------------------------------------------|
(2:55)|--------------------14t11p10h11-14t11p10h11-14t11p10h11-14t11p10h11-14t11p10h11--14b15-14--------------||-14v*-9v*-11v*-10v*-----------------------------------------------------------------------16~--15-16-15||-------------------------------------------------------------------------------------------------------||-------------------------------------------------------------------------------------------------------||-------------------------------------------------------------------------------------------------------||-------------------------------------------------------------------------------------------------------|
(3:00)|-10--12--13--15---14h15p14----14-------------------||-13b-15b-16b-18b-----------16----16-15-13----13b15-||------------------------------------------15-------||---------------------------------------------------||---------------------------------------------------||---------------------------------------------------|
(3:05)|-10-11p10-8-10------------------------------------------------------------------------||---------------11-10-8---11p10p8-10p8p7-8p7-------7h8p7-------------------------------||--------------------------------------------8p7h8-------8p7-8p7----7-------------8-8*-||----------------------------------------------------------------10---10p8h10-8p7------||--------------------------------------------------------------------------------------||--------------------------------------------------------------------------------------|
(3:11)|-11--11--11--11--11---13--13--13--13--13---15--15--15--15--15-----||-14b-14b-14b-14b-14b--16b-16b-16b-16b-16b--18b-18b-18b-18b-18b----||------------------------------------------------------------------||------------------------------------------------------------------||------------------------------------------------------------------||------------------------------------------------------------------|
(3:19)|-11p10p8-----------------------------------------------||---------11p10p8-7h8h10-8p7----------------------------||----------------------------7h8-7p5--------------------||------------------------------------8p7p5-4h5h7-5p4-4~-||----------------------------------------------------5~-||-------------------------------------------------------|
Guitar 2:(2:50)|-------------------------------------------------------------------------||-------------------------------------------------------------------------||-------------------------------------------------------------------------||-------------------------------------------------------------------------||-3-----3-----3-----3-----3---3h5p3p0-3-----3-----3-----------------------||---0-0---0-0---0-0---0-0---0-----------0-0---0-0---0-4444-7777-1111-4444-| . . . . . . . . . . . . . . .... .... .... ....
(2:55)|-------------------------------------------------------------------||-------------------------------------------------------------------||-------------------------------------------------------------------||-----------------------------------------------------3-1-3~--1-3-1-||-3-----3-----3-----3-----3---3h5p3p0-3-----3-----3---3-1-3~--1-3-1-||---0-0---0-0---0-0---0-0---0-----------0-0---0-0---0-3-1-3~--1-3-1-| . . . . . . . . . . . . . .
(3:00)|-----------------------------------------------------10h11p10-8-10-8---------------||---------------------------------------------------------------------11-10-8-10b11-||-----------------------------------------------------------------------------------||-----------------------------------------------------------------------------------||-3-----3-----3-----3-----3---3h5p3p0-3-----3-----3---------------------------------||---0-0---0-0---0-0---0-0---0-----------0-0---0-0---0-------------------------------| . . . . . . . . . . . . . .
(3:05)|-------------------------------------------------------------------||-------------------------------------------------------------------||-------------------------------------------------------------------||-----------------------------------------------------3-1-3~--1-3-1-||-3-----3-----3-----3-----3---3h5p3p0-3-----3-----3---3-1-3~--1-3-1-||---0-0---0-0---0-0---0-0---0-----------0-0---0-0---0-3-1-3~--1-3-1-| . . . . . . . . . . . . . .
(3:11)[count each octave as TWO strums]|-----------------------------------------------------------------||-----------------------------------------------------------------||-8-8-8-8-8-8-8-8-10-10-10-10-10-10-10-10-12-12-12-12-12-12-12-12-||-x-x-x-x-x-x-x-x--x--x--x--x--x--x--x--x--x--x--x--x--x--x--x--x-||-6-6-6-6-6-6-6-6--8--8--8--8--8--8--8--8-10-10-10-10-10-10-10-10-||-----------------------------------------------------------------|
(3:19)[count each octave as ONE strum]|-------------------------------------------------||-------------------------------------------------||-13-13-13-13-13-13-13-13-15-15-15-15-15-15-15-15-||--x--x--x--x--x--x--x--x--x--x--x--x--x--x--x--x-||-11-11-11-11-11-11-11-11-13-13-13-13-13-13-13-13-||-------------------------------------------------|
CHORUS--- [repeat CHORUS] (3:24-3:42) "Please forgive me... I don't know what I'm doing... Someone help me... Start begging for your mercy... Please forgive me... I don't know what I'm doing... Someone help me... Start begging for your mercy..."
OUTRO---Both guitars:(3:42)|-------------------------------------||-------------------------------------||-------------------------------------||-------------------------------------||-3-----3-----3-----3-----3---3h5p3p0-||---0-0---0-0---0-0---0-0---0---------| . . . . . . . . .
(3:45)|-----------------------------------------||-----------------------------------------||-----------------------------------------||-----------------------------------------||-3-----3-----3---------------------\\\\\-||---0-0---0-0---0--<5>--<5>--<5>----\\\\\-| . . . . . ^^artifical harm.
(3:48)|-------------------------------------||-------------------------------------||-------------------------------------||-------------------------------------||-3-----3-----3-----3-----3---3h5p3p0-||---0-0---0-0---0-0---0-0---0---------| . . . . . . . . .
(3:50)|--------------------------------||--------------------------------||--------------------------------||------------------3-1-3~--1-3-1-||-3-----3-----3----3-1-3~--1-3-1-||---0-0---0-0---0--3-1-3~--1-3-1-| . . . . .
Tap to rate this tab
 
# A B C D E F G H I J K L M N O P Q R S T U V W X Y Z