Bullet For My Valentine - Scream Aim Fire tab

-------------------------------------------------------------------------------
		   Scream Aim Fire - Bullet For My Valentine
-------------------------------------------------------------------------------
Tabbed by: Shane - Honored Shinobi
Email: chasing-august@hotmail.com
Tuning: One step down or Standard D tuning.
        1)D           4)C
        2)A           5)G
        3)F           6)D

This is the solo to Scream Aim Fire. I tabbed this because I found the other tabs 
for this solo to be really bad.
On the first and last bends only bend the note that has the ^ mark. Do not bend 
the other note. This should give you a 
scream or screech like effect.

|------------||-15---------||-14^14--12~-||------------||------------||------------|
|-15-12-12-12-14-12-12-12-15-12-12-12-17-12-12-12-15-12-12-12-14-12-||-------------------------------------------------------------------||-------------------------------------------------------------------||-------------------------------------------------------------------||-------------------------------------------------------------------||-------------------------------------------------------------------|
12-12-15-12-12-12-17-12-12-12-15^^-15~-|---------------------------------------|---------------------------------------|---------------------------------------|---------------------------------------|---------------------------------------|
some sweep picking
|-------15h19p15------15h19p15------14h17p14------14h17p14-||-17--17--------17--17--------16--16--------16--16---------||---16------------16------------14------------14-----------||----------------------------------------------------------||----------------------------------------------------------||----------------------------------------------------------|
Listen to the song to get the timing right for this part.
|---19-17-15-17^-----19-17-15-14-----19-17-19-15-19-14-19----------14-15~-||-17--------------17--------------17----------------------17-15-17--------||-------------------------------------------------------------------------||-------------------------------------------------------------------------||-------------------------------------------------------------------------||-------------------------------------------------------------------------|
now some really fast finger tapping
|-t19p12h15-||-----------||-----------||-----------| x8|-----------||-----------|
|-t19p12h14-||-----------||-----------||-----------| x8|-----------||-----------|
and now the run
|----------------------------------------------14-15h17-17^-||-------------------------------------13-15h17--------------||----------------------------12-14h16-----------------------||-------------------12-14h16--------------------------------||----------12-14h15-----------------------------------------||-12-14h15--------------------------------------------------|
|-12s--||-15^s-||------||------||------||------|
************************************ | t tap note | h hammer-on | p pull-off | ~ vibrato | ^ full bend | ^ 1.5 bend | s sustain note(s) ************************************ Please enjoy this great song. If you have any questions you can email me directly or leave a comment and I will get back to you as soon as I can. If you email me please put "Scream Aim Fire solo tab question" as the subject so I don't accidently delete the email. If you don't do this I will not open the email and your question will not be answered by me. Please excuse the gap in the 15 ^^ section UG was being stupid and kept adding the space I editted it as much as possible to try to fix this but I couldn't.
Tap to rate this tab
 
# A B C D E F G H I J K L M N O P Q R S T U V W X Y Z