Bullet For My Valentine - Alone tab

Pretty much a copy of my Guitar Pro tab for those people without Guitar Pro. Feel 
free to ask any questions or anything. 
You can e-mail me at caleb-baldwin@hotmail.com

Artist: Bullet For My Valentine
Song: Alone
Album: Fever (2010)

Tuning: Drop C (CGCFAD) Low to high.

Part 1 (Intro)

Guitar 1

D|--------------| |--------------| |--------------| |--------------| A|-0h5h8t13p8p5-| |-0h5h8t10p8p5-| |-0h5h8t12p8p5-| |-0h5h8t10p8p5-| F|--------------| |--------------| |--------------| |--------------| C|--------------| x4 |--------------| x4 |--------------| x4 |--------------| x4G|--------------| |--------------| |--------------| |--------------| C|--------------| |--------------| |--------------| |--------------|
Guitar 2
D|--------------| |--------------| |--------------| |--------------| A|--------------| |--------------| |--------------| |--------------| F|--------5~~~~-| |--------------| |--------------| |--------------| C|--------5~~~~-| |-~~~~~~~7~~~~-| |-~~~~~~~2~~~~-| |-~~~~~~~5~~~~-| G|--------3~~~~-| |-~~~~~~~7~~~~-| |-~~~~~~~2~~~~-| |-~~~~~~~5~~~~-| C|--------------| |-~~~~~~~7~~~~-| |-~~~~~~~2~~~~-| |-~~~~~~~5~~~~-|
Play three times and then play this. Guitar 1
D|--------------| |--------------| |--------------|A|-0h5h8t13p8p5-| |-0h5h8t10p8p5-| |-0h5h8p5~~~~~-|F|--------------| |--------------| |--------------|C|--------------| x4 |--------------| x4 |--------------|G|--------------| |--------------| |--------------|C|--------------| |--------------| |--------------|
Guitar 2
D|--------------| |--------------| |--------------|A|--------------| |--------------| |--------------|F|-~~~~~~~5~~~~-| |--------------| |--------------|C|-~~~~~~~5~~~~-| |-~~~~~~~7~~~~-| |-~~~~~~~2~~~~-|G|-~~~~~~~3~~~~-| |-~~~~~~~7~~~~-| |-~~~~~~~2~~~~-|C|--------------| |-~~~~~~~7~~~~-| |-~~~~~~~2~~~~-|
And that rings out while the fist measure below is played. Part 2 Guitar 1
|------------------------------------------------------------------||------------------------------------------------------------------||------------------------------------------------------------------|This is played while the notes|-----4p2-4p2-----5p2-5p2-------------4p2-4p2-----9h10p9p0-7p0-7h9-|from the previous bar ring out|-2-2---------2-2---------2-2-----2-2---------0-0------------------|It's hard to hear.|-2-2---------2-2---------2-2-0h2-2-2---------0-0------------------|
. . . . . . . . . . |------------------------------------------------------------------||------------------------------------------------------------------||------------------------------------------------------------------||-----4p2-4p2-----5p2-5p2-------------4p2-4p2-----9h10p9p0-7p0-7h9-| |-2-2---------2-2---------2-2-----2-2---------0-0------------------||-2-2---------2-2---------2-2-0h2-2-2---------0-0------------------|
. . . . . . . . . .|------------------------------------------------------------------||------------------------------------------------------------------||------------------------------------------------------------------||-----4p2-4p2-----5p2-5p2-------------4p2-4p2-----9h10p9p0-7p0-7h9-| x3|-2-2---------2-2---------2-2-----2-2---------2-2------------------||-2-2---------2-2---------2-2-0h2-2-2---------2-2------------------|
. . . . . . . . . .|--------------------------------||--------------------------------||--------------------------------| These are hammer-ons and pull-offs,|0-4-0-4-7-4-0-4-0-4-7-4-0-4-5-4-| but I tabbed it like this to make it|--------------------------------| easier to read.|--------------------------------|
Play the following two measures twice.
|------------------------------------------------------------------||------------------------------------------------------------------||------------------------------------------------------------------||-----4p2-4p2-----5p2-5p2-------------4p2-4p2-----9h10p9p0-7p0-7h9-||-2-2---------2-2---------2-2-----2-2---------2-2------------------||-2-2---------2-2---------2-2-0h2-2-2---------2-2------------------|
. . . . . . . . . . |------------------------------------------------------------------| |------------------------------------------------------------------||-----------------------------------------7-7-------------9-9------||-----4p2-4p2-----5p2-5p2-------------5-5-----5-5-----7-7-----7-7--||-2-2---------2-2---------2-2-----3-3-------------5-5--------------||-2-2---------2-2---------2-2-0h2----------------------------------| . . . . . . . . . . . . . .
Guitar 2
|------------------------------------------------------------------||------------------------------------------------------------------||------------------------------------------------------------------||-~~~~~~~~~~~~~~~~~~~~~~~~~~~~~~~~~~~~~~~~~~~~~~~~~~~~~~~~~~~~~~~~-||-~~~~~~~~~~~~~~~~~~~~~~~~~~~~~~~~~~~~~~~~~~~~~~~~~~~~~~~~~~~~~~~~-||-~~~~~~~~~~~~~~~~~~~~~~~~~~~~~~~~~~~~~~~~~~~~~~~~~~~~~~~~~~~~~~~~-|
|------------------------------------------------------------------||------------------------------------------------------------------||------------------------------------------------------------------||-------------------------------------------------5h7p5p0-4p0-4h5--||-2-2---------2-2---------2-2-2-2-2-2------------------------------||-2-2---------2-2---------2-2-2-2-2-2------------------------------|
. . . . . . . . . . |------------------------------------------------------------------||------------------------------------------------------------------||------------------------------------------------------------------||-----4p2-4p2-----5p2-5p2-------------4p2-4p2-----5h7p5p0-4p0-4h5--| x3|-2-2---------2-2---------2-2-----2-2---------2-2------------------||-2-2---------2-2---------2-2-0h2-2-2---------2-2------------------|
. . . . . . . . . .|--------------------------------||--------------------------------||--------------------------------||--------------------------------||--------------------------------||--------------------------------|
Play the following two measures twice.
|------------------------------------------------------------------||------------------------------------------------------------------||------------------------------------------------------------------||-----4p2-4p2-----5p2-5p2-------------4p2-4p2-----5h7p5p0-4p0-4h5--||-2-2---------2-2---------2-2-----2-2---------2-2------------------||-2-2---------2-2---------2-2-0h2-2-2---------2-2------------------|
. . . . . . . . . . |------------------------------------------------------------------| |------------------------------------------------------------------||---------------------------------5~~~~~~~~~~~~~~~~~7~~~~~~~~~~~~~-||-----4p2-4p2-----5p2-5p2---------5~~~~~~~~~~~~~~~~~7~~~~~~~~~~~~~-||-2-2---------2-2---------2-2-----3~~~~~~~~~~~~~~~~~5~~~~~~~~~~~~~-||-2-2---------2-2---------2-2-0h2----------------------------------| . . . . . .
Part 3 Guitar 1
|---------------------------------|---------------------------------| |---------------------------------|---------------------------------| |---------------------------------|---------------------------------| |-5-5-5-5-9-5-5-5-5-5-5-5-9-5-5-5-|-4-4-4-4-7-4-4-4-4-4-4-4-7-4-4-4-| |---------------------------------|---------------------------------| |---------------------------------|---------------------------------|
. . . . . . . . . . . . . . . . . . . . |---------------------------------|---------------------------------| |---------------------------------|---------------------------------| |---------------------------------|---------------------------------| |-2-2-2-2-5-2-2-2-2-2-2-2-5-2-2-2-|-4-4-4-4-7-4-4-4-4-4-4-4-7-4-4-4-| |---------------------------------|---------------------------------| |---------------------------------|---------------------------------| . . . . . . . . . .
Play twice, but on second time play this for the last measure.
N.H.-----------||---------------------------------||---------------------------------| |---------------------------------| |-----------------9-9-9-9-9-9-9-9-| |---------------------------------| |---------------------------------|
Guitar 2
|---------------------------------|---------------------------------||---------------------------------|---------------------------------| |---------------------------------|---------------------------------| |-10~~~~~~~~~~~~~~~~~~~~~~~~~~~~~-|-7~~~~~~~~~~~~~~~~~~~~~~~~~~~~~~-||-10~~~~~~~~~~~~~~~~~~~~~~~~~~~~~-|-7~~~~~~~~~~~~~~~~~~~~~~~~~~~~~~-||-10~~~~~~~~~~~~~~~~~~~~~~~~~~~~~-|-7~~~~~~~~~~~~~~~~~~~~~~~~~~~~~~-|
|---------------------------------|---------------------------------||---------------------------------|---------------------------------| |---------------------------------|---------------------------------| |-2~~~~~~~~~~~~~~~~~~~~~~~~~~~~~~-|-5~~~~~~~~~~~~~~~~~~~~~~~~~~~~~~-||-2~~~~~~~~~~~~~~~~~~~~~~~~~~~~~~-|-5~~~~~~~~~~~~~~~~~~~~~~~~~~~~~~-||-2~~~~~~~~~~~~~~~~~~~~~~~~~~~~~~-|-5~~~~~~~~~~~~~~~~~~~~~~~~~~~~~~-|
Play twice, but on the second time play this for the last measure.
|---------------------------------||---------------------------------| |---------------------------------| |-5~~~~~~~5~~~~~~~5~~~~~~~5~~~~~~-| |-5~~~~~~~5~~~~~~~5~~~~~~~5~~~~~~-| |-5~~~~~~~5~~~~~~~5~~~~~~~5~~~~~~-|
Part 4 Guitar 1
|-------------------------------------------------------| |-------------------------------------------------------| |-------------------------------------------------------| |-------------------------------------------------------| x2 |-2-2--2-2-2--2-2-2--2-2-2--2-2-2--2-2-2--2-2-2--2-0000-| |-2-2--2-2-2--2-2-2--2-2-2--2-2-2--2-2-2--2-2-2--2-0000-|
. . . . . . . . . . . . . . . . . . . . . ....|-------------------------------------------------------||-------------------------------------------------------||-------------------------------------------------------||-5-5--5-5-5--5-5-5--5-5-5--5-5-5--5-5-5--5-5-5--5-5555-||-3-3--3-3-3--3-3-3--3-3-3--3-3-3--3-3-3--3-3-3--3-3333-||-------------------------------------------------------|
. . . . . . . . . . . . . . . . . . . . . ....|-------------------------------------------------------||-------------------------------------------------------||-------------------------------------------------------||--------------------------------0~~0~~---0~~0~~--------||-0-0--0-0-0--0-0-0--0-0-0--0-0-00~~0~~0-00~~0~~--------||-0-0--0-0-0--0-0-0--0-0-0--0-0-00~~0~~0-00~~0~~-17\----| . . . . . . . . . . . . . . . .
Part 5 (Part 2 altered) Guitar 1
|------------------------------------------------------------------||------------------------------------------------------------------||------------------------------------------------------------------||-----4p2-4p2-----5p2-5p2-------------4p2-4p2-----9h10p9p0-7p0-7h9-| |-2-2---------2-2---------2-2-----2-2---------0-0------------------||-2-2---------2-2---------2-2-0h2-2-2---------0-0------------------| . . . . . . . . . .
Play the following two measures twice.
|------------------------------------------------------------------||------------------------------------------------------------------||------------------------------------------------------------------||-----4p2-4p2-----5p2-5p2-------------4p2-4p2-----9h10p9p0-7p0-7h9-||-2-2---------2-2---------2-2-----2-2---------2-2------------------||-2-2---------2-2---------2-2-0h2-2-2---------2-2------------------|
. . . . . . . . . .|------------------------------------------------------------------| |------------------------------------------------------------------||-----------------------------------------7-7-------------9-9------||-----4p2-4p2-----5p2-5p2-------------5-5-----5-5-----7-7-----7-7--||-2-2---------2-2---------2-2-----3-3-------------5-5--------------||-2-2---------2-2---------2-2-0h2----------------------------------| . . . . . . . . . . . . . .
Guitar 2
|------------------------------------------------------------------||------------------------------------------------------------------||------------------------------------------------------------------||-------------------------------------------------5h7p5p0-4p0-4h5--||-2-2---------2-2---------2-2-2-2-2-2------------------------------||-2-2---------2-2---------2-2-2-2-2-2------------------------------| . . . . . . . . . .
Play the following to measures twice.
|------------------------------------------------------------------||------------------------------------------------------------------||------------------------------------------------------------------||-----4p2-4p2-----5p2-5p2-------------4p2-4p2-----5h7p5p0-4p0-4h5--||-2-2---------2-2---------2-2-----2-2---------2-2------------------||-2-2---------2-2---------2-2-0h2-2-2---------2-2------------------|
. . . . . . . . . .|------------------------------------------------------------------| |------------------------------------------------------------------||---------------------------------5~~~~~~~~~~~~~~~~~7~~~~~~~~~~~~~-||-----4p2-4p2-----5p2-5p2---------5~~~~~~~~~~~~~~~~~7~~~~~~~~~~~~~-||-2-2---------2-2---------2-2-----3~~~~~~~~~~~~~~~~~5~~~~~~~~~~~~~-||-2-2---------2-2---------2-2-0h2----------------------------------| . . . . . .
Part 3 repeated Guitar 1
|---------------------------------|---------------------------------| |---------------------------------|---------------------------------| |---------------------------------|---------------------------------| |-5-5-5-5-9-5-5-5-5-5-5-5-9-5-5-5-|-4-4-4-4-7-4-4-4-4-4-4-4-7-4-4-4-| |---------------------------------|---------------------------------| |---------------------------------|---------------------------------|
. . . . . . . . . . . . . . . . . . . . |---------------------------------|---------------------------------| |---------------------------------|---------------------------------| |---------------------------------|---------------------------------| |-2-2-2-2-5-2-2-2-2-2-2-2-5-2-2-2-|-4-4-4-4-7-4-4-4-4-4-4-4-7-4-4-4-| |---------------------------------|---------------------------------| |---------------------------------|---------------------------------| . . . . . . . . . .
Play twice, but on second time play this for the last measure.
N.H.-----------||---------------------------------||---------------------------------| |---------------------------------| |-----------------9-9-9-9-9-9-9-9-| |---------------------------------| |---------------------------------|
Guitar 2
|---------------------------------|---------------------------------||---------------------------------|---------------------------------| |---------------------------------|---------------------------------| |-10~~~~~~~~~~~~~~~~~~~~~~~~~~~~~-|-7~~~~~~~~~~~~~~~~~~~~~~~~~~~~~~-||-10~~~~~~~~~~~~~~~~~~~~~~~~~~~~~-|-7~~~~~~~~~~~~~~~~~~~~~~~~~~~~~~-||-10~~~~~~~~~~~~~~~~~~~~~~~~~~~~~-|-7~~~~~~~~~~~~~~~~~~~~~~~~~~~~~~-|
|---------------------------------|---------------------------------||---------------------------------|---------------------------------| |---------------------------------|---------------------------------| |-2~~~~~~~~~~~~~~~~~~~~~~~~~~~~~~-|-5~~~~~~~~~~~~~~~~~~~~~~~~~~~~~~-||-2~~~~~~~~~~~~~~~~~~~~~~~~~~~~~~-|-5~~~~~~~~~~~~~~~~~~~~~~~~~~~~~~-||-2~~~~~~~~~~~~~~~~~~~~~~~~~~~~~~-|-5~~~~~~~~~~~~~~~~~~~~~~~~~~~~~~-|
Play twice, but on the second time play this for the last measure.
|---------------------------------||---------------------------------| |---------------------------------| |-5~~~~~~~5~~~~~~~5~~~~~~~5~~~~~~-| |-5~~~~~~~5~~~~~~~5~~~~~~~5~~~~~~-| |-5~~~~~~~5~~~~~~~5~~~~~~~5~~~~~~-|
Part 4 repeated Guitar 1 Play this section twice.
|-------------------------------------------------------| |-------------------------------------------------------| |-------------------------------------------------------| |-------------------------------------------------------| x2 |-2-2--2-2-2--2-2-2--2-2-2--2-2-2--2-2-2--2-2-2--2-0000-| |-2-2--2-2-2--2-2-2--2-2-2--2-2-2--2-2-2--2-2-2--2-0000-|
. . . . . . . . . . . . . . . . . . . . . ....|-------------------------------------------------------||-------------------------------------------------------||-------------------------------------------------------||-5-5--5-5-5--5-5-5--5-5-5--5-5-5--5-5-5--5-5-5--5-5555-||-3-3--3-3-3--3-3-3--3-3-3--3-3-3--3-3-3--3-3-3--3-3333-||-------------------------------------------------------|
. . . . . . . . . . . . . . . . . . . . . ....|-------------------------------------------------------||-------------------------------------------------------||-------------------------------------------------------||--------------------------------0~~0~~---0~~0~~--------||-0-0--0-0-0--0-0-0--0-0-0--0-0-00~~0~~0-00~~0~~--------||-0-0--0-0-0--0-0-0--0-0-0--0-0-00~~0~~0-00~~0~~-17\----| . . . . . . . . . . . . . . . .
Part 6 Guitar 1
s s s s|-----------------------------------------------||-11v~~~~-9h10p9---9-10-9h10p9---9-10-9h10p9----||----------------9-------------9--------------9-||-----------------------------------------------||-----------------------------------------------||-----------------------------------------------|
s s s s|-----------------------------------------------||-11v~~~~-9h10p9---9-10-9h10p9---9-10-9h10p9----||----------------9-------------9-------------11-||-----------------------------------------------||-----------------------------------------------||-----------------------------------------------|
s s s s|-----------------------------------------------||-9v~~~~~-9h10p9---9-10-9h10p9---9-10-9h10p9----||----------------9-------------9-------------11-||-----------------------------------------------| |-----------------------------------------------||-----------------------------------------------|
s s s s|-----------------------------------------------||-9v~~~~~-9h10p9---9-10-9h10p9---9-10-9h10p9----||----------------9-------------9--------------9-||-----------------------------------------------| |-----------------------------------------------||-----------------------------------------------|
Th above part plays twice, but Guitar 2 comes in on the second time.
Guitar 2 s s s s |----------------------------------------------------------||----------12h14p12----12-14-12h14p12----12-14-12h14p12----||-14v~~~~~----------14----------------14----------------13-||----------------------------------------------------------||----------------------------------------------------------||----------------------------------------------------------|
s s s s |----------------------------------------------------------||----------12h14p12----12-14-12h14p12----12-14-12h14p12----||-14v~~~~~----------14----------------14----------------14-||----------------------------------------------------------||----------------------------------------------------------||----------------------------------------------------------|
s s s s|----------------------------------------------------------||----------12h14p12----12-14-12h14p12----12-14-12h14p12----||-13v~~~~~----------14----------------14----------------14-||----------------------------------------------------------||----------------------------------------------------------||----------------------------------------------------------|
s s s s|----------------------------------------------------------||----------12h14p12----12-14-12h14p12----12-14-12h14p12----||-13v~~~~~----------14----------------14----------------13-||----------------------------------------------------------||----------------------------------------------------------||----------------------------------------------------------|
Part 7 Solo (starts near the end of the last measure above)
|---------------------------------------------9-10-12-14-16-17-16~~~-||-------------------------------------9-10-12------------------------||-----------------------7-9-11-7-9-11--------------------------------||--------7-9-11-9-11-12----------------------------------------------||-7-9-11-------------------------------------------------------------||--------------------------------------------------------------------| . . . . . . . . . . . . . . .
|-17~~~--19brb~~~~19p17h19~~~-||-----------------------------||-----------------------------||-----------------------------||-----------------------------||-----------------------------|
|-14h17t21-14h17t21-14h17t21-14h17t21-12h16t19-12h16t19-12h16t19-12h16t19-||-------------------------------------------------------------------------||-------------------------------------------------------------------------||-------------------------------------------------------------------------||-------------------------------------------------------------------------||-------------------------------------------------------------------------|
|-10h14t17-10h14t17-10h14t17-10h14t17-12h16t19-12h16t19-12h16t19-12h16t19-||-------------------------------------------------------------------------||-------------------------------------------------------------------------||-------------------------------------------------------------------------||-------------------------------------------------------------------------||-------------------------------------------------------------------------|
|--------------------------------------------------------------------------||--------------------------------------------------------------------------||-----------------------------------------9----------------9-11-13-9-11-13-||---------9---------------9-11-12-9-11-12---12-11-9--11-12-----------------||-9-11-12---12-11-9-11-12--------------------------------------------------||--------------------------------------------------------------------------| . . . . . . . . . . . . . . . . . . . . . . . . . . .
|------------------------------------10----------------10-12-14-||-10---------------10-12-14-10-12-14----14-12-10-12-14----------||----13-11-9-11-13----------------------------------------------||---------------------------------------------------------------||---------------------------------------------------------------||---------------------------------------------------------------| . . . . . .
|-12-14-16-12-14-16-14-16-17-14-16-17-16-17-19-16-17-19-19b-19brb-||-----------------------------------------------------------------||-----------------------------------------------------------------||-----------------------------------------------------------------||-----------------------------------------------------------------||-----------------------------------------------------------------|
|-17h19p17-------------------||----------19~~~~17~~~~20~~~-||----------------------------||----------------------------||----------------------------||----------------------------|
Guitar 2
|-----------------------------------------------------------------||-----------------------------------------------------------------||-----------------------------------------------------------------||-----6p4-6p4-----7p4-7p4-------------6p4-6p4-----7h9p7p0-6p0-6h7-||-4-4---------4-4---------4-4-0h4-4-4---------0-0-----------------||-4-4---------4-4---------4-4-0h4-4-4---------0-0-----------------|
. . . . . . . . . .|-----------------------------------------------------------------||-----------------------------------------------------------------||---------------------------------7~~~~~~~~~~~~~~-9~~~~~~~~~~~~~~-||-----6p4-6p4-----7p4-7p4---------7~~~~~~~~~~~~~~-9~~~~~~~~~~~~~~-||-4-4---------4-4---------4-4-0h4-5~~~~~~~~~~~~~~-7~~~~~~~~~~~~~~-||-4-4---------4-4---------4-4-0h4---------------------------------| . . . . . .
Play the above two measures twice. Part 3 repeated (Comes in on the 20 from the solo) Guitar 1
|---------------------------------|---------------------------------| |---------------------------------|---------------------------------| |---------------------------------|---------------------------------| |-5-5-5-5-9-5-5-5-5-5-5-5-9-5-5-5-|-4-4-4-4-7-4-4-4-4-4-4-4-7-4-4-4-| |---------------------------------|---------------------------------| |---------------------------------|---------------------------------|
. . . . . . . . . . . . . . . . . . . . |---------------------------------|---------------------------------| |---------------------------------|---------------------------------| |---------------------------------|---------------------------------| |-2-2-2-2-5-2-2-2-2-2-2-2-5-2-2-2-|-4-4-4-4-7-4-4-4-4-4-4-4-7-4-4-4-| |---------------------------------|---------------------------------| |---------------------------------|---------------------------------| . . . . . . . . . .
Play twice, but on second time play this for the last measure.
N.H.-----------||---------------------------------||---------------------------------| |---------------------------------| |-----------------9-9-9-9-9-9-9-9-| |---------------------------------| |---------------------------------|
Guitar 2
|---------------------------------|---------------------------------||---------------------------------|---------------------------------| |---------------------------------|---------------------------------| |-10~~~~~~~~~~~~~~~~~~~~~~~~~~~~~-|-7~~~~~~~~~~~~~~~~~~~~~~~~~~~~~~-||-10~~~~~~~~~~~~~~~~~~~~~~~~~~~~~-|-7~~~~~~~~~~~~~~~~~~~~~~~~~~~~~~-||-10~~~~~~~~~~~~~~~~~~~~~~~~~~~~~-|-7~~~~~~~~~~~~~~~~~~~~~~~~~~~~~~-|
|---------------------------------|---------------------------------||---------------------------------|---------------------------------| |---------------------------------|---------------------------------| |-2~~~~~~~~~~~~~~~~~~~~~~~~~~~~~~-|-5~~~~~~~~~~~~~~~~~~~~~~~~~~~~~~-||-2~~~~~~~~~~~~~~~~~~~~~~~~~~~~~~-|-5~~~~~~~~~~~~~~~~~~~~~~~~~~~~~~-||-2~~~~~~~~~~~~~~~~~~~~~~~~~~~~~~-|-5~~~~~~~~~~~~~~~~~~~~~~~~~~~~~~-|
Play twice, but on the second time play this for the last measure.
|---------------------------------||---------------------------------| |---------------------------------| |-5~~~~~~~5~~~~~~~5~~~~~~~5~~~~~~-| |-5~~~~~~~5~~~~~~~5~~~~~~~5~~~~~~-| |-5~~~~~~~5~~~~~~~5~~~~~~~5~~~~~~-|
Part 4 repeated Guitar 1
|-------------------------------------------------------| |-------------------------------------------------------| |-------------------------------------------------------| |-------------------------------------------------------| x2 |-2-2--2-2-2--2-2-2--2-2-2--2-2-2--2-2-2--2-2-2--2-0000-| |-2-2--2-2-2--2-2-2--2-2-2--2-2-2--2-2-2--2-2-2--2-0000-|
. . . . . . . . . . . . . . . . . . . . . ....|-------------------------------------------------------||-------------------------------------------------------||-------------------------------------------------------||-5-5--5-5-5--5-5-5--5-5-5--5-5-5--5-5-5--5-5-5--5-5555-||-3-3--3-3-3--3-3-3--3-3-3--3-3-3--3-3-3--3-3-3--3-3333-||-------------------------------------------------------|
. . . . . . . . . . . . . . . . . . . . . ....|-------------------------------------------------------||-------------------------------------------------------||-------------------------------------------------------||--------------------------------0~~0~~---0~~0~~--------||-0-0--0-0-0--0-0-0--0-0-0--0-0-00~~0~~0-00~~0~~--------||-0-0--0-0-0--0-0-0--0-0-0--0-0-00~~0~~0-00~~0~~-17\----| . . . . . . . . . . . . . . . .
Play this section twice. Part 8 (Part 2 altered) Guitar 1
|------------------------------------------------------------------||------------------------------------------------------------------||------------------------------------------------------------------||-----4p2-4p2-----5p2-5p2-------------4p2-4p2-----9h10p9p0-7p0-7h9-||-2-2---------2-2---------2-2-----2-2---------2-2------------------||-2-2---------2-2---------2-2-0h2-2-2---------2-2------------------|
. . . . . . . . . .|------------------------------------------------------------------| |------------------------------------------------------------------||-----------------------------------------7-7-------------9-9------||-----4p2-4p2-----5p2-5p2-------------5-5-----5-5-----7-7-----7-7--||-2-2---------2-2---------2-2-----3-3-------------5-5--------------||-2-2---------2-2---------2-2-0h2----------------------------------| . . . . . . . . . . . . . .
Guitar 2
|------------------------------------------------------------------||------------------------------------------------------------------||------------------------------------------------------------------||-----4p2-4p2-----5p2-5p2-------------4p2-4p2-----5h7p5p0-4p0-4h5--||-2-2---------2-2---------2-2-----2-2---------2-2------------------||-2-2---------2-2---------2-2-0h2-2-2---------2-2------------------|
. . . . . . . . . .|------------------------------------------------------------------| |------------------------------------------------------------------||---------------------------------5~~~~~~~~~~~~~~~~~7~~~~~~~~~~~~~-||-----4p2-4p2-----5p2-5p2---------5~~~~~~~~~~~~~~~~~7~~~~~~~~~~~~~-||-2-2---------2-2---------2-2-----3~~~~~~~~~~~~~~~~~5~~~~~~~~~~~~~-||-2-2---------2-2---------2-2-0h2----------------------------------| . . . . . .
Part 9
|---------------------||---------------------||-5~~~~---------------||-3~~~~7~~~~2~~~~5~~~-| x2|-3~~~~7~~~~2~~~~5~~~-||------7~~~~2~~~~5~~~-|
Part 10 (Outro) Play intro again, but slow down the tempo throughout. Key ~ - Ring out v - Vibrato . - Palm mute N.H. - Natural Harmonic h - Hammer-on p - Pull-off b - Bend brb - Bend, release, bend t - Tap s - Staccato
Tap to rate this tab
 
# A B C D E F G H I J K L M N O P Q R S T U V W X Y Z