Bullet For My Valentine - Dignity tab

Good song and an awesome solo :)

RATE AND COMMENT!!!!!!!!!


Bullet for My Valentine
"Dignity"
Fever



INTRO---Guitar 1:(0:00)|-----------------------------------------------------------||-----------------------------------------------------------||-----5-----7---5---4-----4h5p4-2-----5-----7----4-5----4-5-||---------------------------------------------3~-----4~-----||-0-0---0-0---0---0---0-0---------0-0---0-0-----------------||-----------------------------------------------------------| . . . . . . . . . . . .
(0:05)|-----------------------------------------------------------||-----------------------------------------------------------||-----5-----7---5---4-----4h5p4-2-----5-----7----4-5----4-5-||---------------------------------------------3~-----4~-----||-0-0---0-0---0---0---0-0---------0-0---0-0-----------------||-----------------------------------------------------------| . . . . . . . . . . . .
(0:10)|-----------------------------------------------------------||-----------------------------------------------------------||-----5-----7---5---4-----4h5p4-2-----5-----7----4-5----4-5-||---------------------------------------------3~-----4~-----||-0-0---0-0---0---0---0-0---------0-0---0-0-----------------||-----------------------------------------------------------| . . . . . . . . . . . .
(0:15)|-----------------------------------------------------------||-----------------------------------------------------------||-----5-----7---5---4-----4h5p4-2-----5-----7----4-5----4-5-||---------------------------------------------3~-----4~-----||-0-0---0-0---0---0---0-0---------0-0---0-0-----------------||-----------------------------------------------------------| . . . . . . . . . . . .
Guitar 2:(0:00)|-------------------------------------------------------------||-------------------------------------------------------------||-----9-----10---9---7-----7h9p7-5-----9-----10----7-9----7-9-||-----------------------------------------------7~-----9~-----||-0-0---0-0----0---0---0-0---------0-0---0-0------------------||-------------------------------------------------------------| . . . . . . . . . . . .
(0:05)|-------------------------------------------------------------||-------------------------------------------------------------||-----9-----10---9---7-----7h9p7-5-----9-----10----7-9----7-9-||-----------------------------------------------7~-----9~-----||-0-0---0-0----0---0---0-0---------0-0---0-0------------------||-------------------------------------------------------------| . . . . . . . . . . . .
(0:10)|-------------------------------------------------------------||-------------------------------------------------------------||-----9-----10---9---7-----7h9p7-5-----9-----10----7-9----7-9-||-----------------------------------------------7~-----9~-----||-0-0---0-0----0---0---0-0---------0-0---0-0------------------||-------------------------------------------------------------| . . . . . . . . . . . .
(0:15)|-------------------------------------------------------------||-------------------------------------------------------------||-----9-----10---9---7-----7h9p7-5-----9-----10----7-9----7-9-||-----------------------------------------------7~-----9~-----||-0-0---0-0----0---0---0-0---------0-0---0-0------------------||-------------------------------------------------------------| . . . . . . . . . . . .
VERSE 1 Part 1---Guitar 1:(0:20)"This society just won't let us be..."|-----------------------------------------------------------------||-----------------------------------------------------------------||-----------------------------------------------------------------||-2-2-2-2-2-2-2-2-2-2-2-2-2-2-2-2-2-2-2-2-2-2-2-2-2-2-2-2-2-2-2-2-||-0-0-0-0-0-0-0-0-0-0-0-0-0-0-0-0-0-0-0-0-0-0-0-0-0-0-0-0-0-0-0-0-||-----------------------------------------------------------------| . . . . . . . . . . . . . . . . . . . . . . . . . . . . . . . .
(0:25)"Please don't be ashamed, we are not to blame, the..."|-----------------------------------------------------------------||-----------------------------------------------------------------||-----------------------------------------------------------------||-----------------------------------------------------------------||-3-3-3-3-3-3-3-3-3-3-3-3-3-3-3-3/5-5-5-5-5-5-5-5\2-2-2-2-2-2-2-2-||-3-3-3-3-3-3-3-3-3-3-3-3-3-3-3-3/5-5-5-5-5-5-5-5\2-2-2-2-2-2-2-2-| . . . . . . . . . . . . . . . . . . . . . . . . . . . . . . . .
(0:31)"future's ours to take, we will make mistakes..."|-----------------------------------------------------------------||-----------------------------------------------------------------||-----------------------------------------------------------------||-2-2-2-2-2-2-2-2-2-2-2-2-2-2-2-2-2-2-2-2-2-2-2-2-2-2-2-2-2-2-2-2-||-0-0-0-0-0-0-0-0-0-0-0-0-0-0-0-0-0-0-0-0-0-0-0-0-0-0-0-0-0-0-0-0-||-----------------------------------------------------------------| . . . . . . . . . . . . . . . . . . . . . . . . . . . . . . . .
(0:36)"scream this loud and proud, 'WE WILL NOT BACK DOWN!'..."|-----------------------------------------------------------------||-----------------------------------------------------------------||-----------------------------------------------------------------||-----------------------------------------------------------------||-3-3-3-3-3-3-3-3-3-3-3-3-3-3-3-3-5-5-5-5-5-5-5-5-2-2-2-2-2-2-2-2-||-3-3-3-3-3-3-3-3-3-3-3-3-3-3-3-3-5-5-5-5-5-5-5-5-2-2-2-2-2-2-2-2-| . . . . . . . . . . . . . . . .
Guitar 2:(0:20)|-----------------------------------------------------------------||-----------------------------------------------------------------||-----------------------------------------------------------------||-----------------------------------------------------------------||-----------------------------------------------------------------||-----------------------------------------------------------------|
(0:25)|-----------------------------------------------------------------||-----------------------------------------------------------------||-----------------------------------------------------------------||-----------------------------------------------------------------||-----------------------------------------------------------------||-----------------------------------------------------------------|
(0:31)|-----------------------------------------------------------------||-----------------------------------------------------------------||-5-5-5-5-5-5-5-5-5-5-5-5-5-5-5-5-5-5-5-5-5-5-5-5-5-5-5-5-5-5-5-5-||-7-7-7-7-7-7-7-7-7-7-7-7-7-7-7-7-7-7-7-7-7-7-7-7-7-7-7-7-7-7-7-7-||-----------------------------------------------------------------||-----------------------------------------------------------------| . . . . . . . . . . . . . . . . . . . . . . . . . . . . . . . .
(0:36)|-------------------------------------------------------------------------||-------------------------------------------------------------------------||-------------------------------------------------------------------------||-7-7-7-7-7-7-7-7-7-7-7-7-7-7-7-7--9--9--9--9--9--9--9--9-7-7-7-7-7-7-7-7-||-9-9-9-9-9-9-9-9-9-9-9-9-9-9-9-9-10-10-10-10-10-10-10-10-9-9-9-9-9-9-9-9-||-------------------------------------------------------------------------| . . . . . . . . . . . . . . . .
VERSE 2 Part 2---Both guitars:(0:41)"So let's go and relieve the pressure, and a kick can only make itbetter..."|-----------------------------------------------------------||-----------------------------------------------------------||-----2-------2-------2-7--5~-------2-------2-------2-4--5~-||-2-2-2-2-2-2-2-2-2-2-2-7--5~---2-2-2-2-2-2-2-2-2-2-2-4--5~-||-0-0-0-0-0-0-0-0-0-0-0-5--3~---0-0-0-0-0-0-0-0-0-0-0-2--3~-||-----------------------------------------------------------| . . . . . . . . . . . . . . . .
(0:46)"We can't, we won't surrender, we can't, we won't surrender..."|-----------------------------------------------------||------6--5--6--5--6-5--------------------------------||------5--5--5--5--5-5--5----------------10--10--5--5-||-3~---3--3--3--3--3-3--3---5~--------5---x---x--x--x-||-3~---3--3--3--3--3-3--3---5~--5-5-5-5---8---8--8--8-||-3~---3--3--3--3--3-3--3---5~--5-5-5-5---------------| . . .
(0:51)"We're not scared 'cause our life in danger, we add the heat will onlymake it stronger..."|-----------------------------------------------------------||-----------------------------------------------------------||-----2-------2-------2-7--5~-------2-------2-------2-4--5~-||-2-2-2-2-2-2-2-2-2-2-2-7--5~---2-2-2-2-2-2-2-2-2-2-2-4--5~-||-0-0-0-0-0-0-0-0-0-0-0-5--3~---0-0-0-0-0-0-0-0-0-0-0-2--3~-||-----------------------------------------------------------| . . . . . . . . . . . . . . . .
(0:56)"We can't, we won't surrender, we can't, we won't surrender..."|-----------------------------------------------------||------6--5--6--5--6-5--------------------------------||------5--5--5--5--5-5--5----------------10--10--5--5-||-3~---3--3--3--3--3-3--3---5~--------5---x---x--x--x-||-3~---3--3--3--3--3-3--3---5~--5-5-5-5---8---8--8--8-||-3~---3--3--3--3--3-3--3---5~--5-5-5-5---------------| . . .
CHORUS---Guitar 1:(1:01)"Don't tell me where are we laying your..."|---------------------------------------------------------------------------------||---------------------------------------------------------------------------------||-10-10--10-10-10--10-10-10--10-10-10--10-10-10--10-10-10--10-10-10--10-10-10--10-||--x--x---x--x--x---x--x--x---x--x--x---x--x--x---x--x--x---x--x--x---x--x--x---x-||--8--8---8--8--8---8--8--8---8--8--8---8--8--8---8--8--8---8--8--8---8--8--8---8-||---------------------------------------------------------------------------------|
(1:06)"cemetery, don't try to silence and..."|---------------------------------------------------------------||---------------------------------------------------------------||-9-9--9-9-9--9-9-9--9-9-9--9-10-10--10-10-10--10---------------||-x-x--x-x-x--x-x-x--x-x-x--x--x--x---x--x--x---x---------------||-7-7--7-7-7--7-7-7--7-7-7--7--8--8---8--8--8---8-5-5--5-5-5--5-||-------------------------------------------------5-5--5-5-5--5-| . . . . . .
(1:11)"bury me, don't push me 'cause I won't go..."|---------------------------------------------------------------------------------||---------------------------------------------------------------------------------||-10-10--10-10-10--10-10-10--10-10-10--10-10-10--10-10-10--10-10-10--10-10-10--10-||--x--x---x--x--x---x--x--x---x--x--x---x--x--x---x--x--x---x--x--x---x--x--x---x-||--8--8---8--8--8---8--8--8---8--8--8---8--8--8---8--8--8---8--8--8---8--8--8---8-||---------------------------------------------------------------------------------|
(1:16)"quietly, I'd rather die with dignity..."|------------------------------------------------------------------------------||------------------------------------------------------------------------------||-12-12--12-12-12--12-12-12--12-12-12--12-12--------10--------10-9-9-9-9-9-9-9-||--x--x---x--x--x---x--x--x---x--x--x---x--x---------x---------x-x-x-x-x-x-x-x-||-10-10--10-10-10--10-10-10--10-10-10--10--10-8---8--8--8---8--8-7-7-7-7-7-7-7-||------------------------------------------------------------------------------| . . . . . . . . . . . . .
Guitar 2:(1:01)|---------------------------------------------------------||---------------------------------------------------------||---------------------------------------------------------||-3-3--3-3-3--3-3-3--3-3-3--3-3-3--3-3-3--3-3-3--3-3-3--3-||-3-3--3-3-3--3-3-3--3-3-3--3-3-3--3-3-3--3-3-3--3-3-3--3-||-3-3--3-3-3--3-3-3--3-3-3--3-3-3--3-3-3--3-3-3--3-3-3--3-|
(1:06)|---------------------------------------------------------||---------------------------------------------------------||---------------------------------------------------------||-7-7--7-7-7--7-7-7--7-7-7--7-5-5--5-5-5--5---------------||-7-7--7-7-7--7-7-7--7-7-7--7-5-5--5-5-5--5-5-5--5-5-5--5-||-7-7--7-7-7--7-7-7--7-7-7--7-5-5--5-5-5--5-5-5--5-5-5--5-| . . . . . .
(1:11)|---------------------------------------------------------||---------------------------------------------------------||---------------------------------------------------------||-3-3--3-3-3--3-3-3--3-3-3--3-3-3--3-3-3--3-3-3--3-3-3--3-||-3-3--3-3-3--3-3-3--3-3-3--3-3-3--3-3-3--3-3-3--3-3-3--3-||-3-3--3-3-3--3-3-3--3-3-3--3-3-3--3-3-3--3-3-3--3-3-3--3-|
(1:16)|---------------------------------------------------------||---------------------------------------------------------||---------------------------------------------------------||-5-5--5-5-5--5-5-5--5-5-5--5---------------5-5-5-5-5-5-5-||-5-5--5-5-5--5-5-5--5-5-5--5-5-5--5-5-5--5-5-5-5-5-5-5-5-||-5-5--5-5-5--5-5-5--5-5-5--5-5-5--5-5-5--5-5-5-5-5-5-5-5-|
POSTCHORUS--- (repeat INTRO x.5) (1:21-1:32) VERSE 2 Part 1--- [except both guitars play the harmony] [repeat VERSE 1 Part 1] (1:32-1:52) "Women put us down, hope we're not around... They pray we go away, but we're here to stay... Time is on our side, our two worlds collide... These four words might help, just go fuck yourself!..." VERSE 2 Part 2--- [repeat VERSE 1 Part 2] (1:53-2:13) "So let's go we'll release the pressure... And a kick can only make it better... We can't we won't surrender... We can't we won't surrender!... We're not scared 'cause our life in danger... We add the heat will only make it stronger... We can't we won't surrender... We can't we won't surrender!..." CHORUS--- [repeat CHORUS] (2:13-2:33) "Don't tell me where are we laying your cemetery... Don't try to silence and bury me... Don't push me 'cause I won't go quietly... I'd rather die with dignity..."
PRESOLO---Guitar 1:(2:33)|-----------------------------------------------------------||-----------------------------------------------------------||---9p5---7p4------------------------9p5---7p4-----5--9--7~-||-----------------------------------------------------------||-0-----0-----0-0-00-0-0-0-0-0-0-0-0-----0-----0-0----------||-----------------------------------------------------------| . . . . .. . . . . . . . . . . .
(2:38) "DIGNITY!!!!!!!!"|-----------------------------------------------------------||-----------------------------------------------------------||---9p5---7p4------------------------9p5---7p4-----5--9--7~-||-----------------------------------------------------------||-0-----0-----0-0-00-0-0-0-0-0-0-0-0-----0-----0-0----------||-----------------------------------------------------------| . . . . .. . . . . . . . . . . .
(2:43)|-----------------------------------------------------------||-----------------------------------------------------------||---9p5---7p4------------------------9p5---7p4-----5--9--7~-||-----------------------------------------------------------||-0-----0-----0-0-00-0-0-0-0-0-0-0-0-----0-----0-0----------||-----------------------------------------------------------| . . . . .. . . . . . . . . . . .
(2:48)|-----------------------------------------------------------||-----------------------------------------------------------||---9p5---7p4------------------------9p5---7p4-----5--9--7~-||-----------------------------------------------------------||-0-----0-----0-0-00-0-0-0-0-0-0-0-0-----0-----0-0----------||-----------------------------------------------------------| . . . . .. . . . . . . . . . . .
Guitar 2:(2:33)|-----------------------------------------------------------||-----------------------------------------------------------||---2-----2--------------------------2-----2----------------||---2-----2--------------------------2-----2------7--10--9~-||---0-----0--------------------------0-----0----------------||-----------------------------------------------------------|
(2:38)|-----------------------------------------------------------||-----------------------------------------------------------||---2-----2--------------------------2-----2----------------||---2-----2--------------------------2-----2------7--10--9~-||---0-----0--------------------------0-----0----------------||-----------------------------------------------------------|
(2:43)|--------------------------------------------------------------||--------------------------------------------------------------||--------------------------------------------------------------||---10p7---9p5------------------------10p7---9p5-----7--10--9~-||-0------0-----0-0-00-0-0-0-0-0-0-0-0------0-----0-0-----------||--------------------------------------------------------------| . . . . .. . . . . . . . . . . .
(2:48)|--------------------------------------------------------------||--------------------------------------------------------------||--------------------------------------------------------------||---10p7---9p5------------------------10p7---9p5-----7--10--9~-||-0------0-----0-0-00-0-0-0-0-0-0-0-0------0-----0-0-----------||--------------------------------------------------------------| . . . . .. . . . . . . . . . . .
SOLO--- [for Guitar 2, I'm just doing the harmonies. The rhythm is very
easy to figure out]Guitar 1:(2:53)|-12p8---------8h12p8---------8h13p8---------8h13p8---------8-||------10---10--------10---10--------10---10--------10---10---||---------9--------------9--------------9--------------9------||-------------------------------------------------------------||-------------------------------------------------------------||-------------------------------------------------------------|
(2:56) [hammer on and pull off as you please]------------->|-/12-10----10--------------------------------------------------||--------13----13-10-13-10----10--------------------------------||--------------------------12----12-9-12-9----9-----------------||------------------------------------------12---12-10-12-10-7-9-||---------------------------------------------------------------||---------------------------------------------------------------|
(2:59)|-------------------------------------------||-------------------------------------------||-------------------------------------------||-10v~--12v~--9v~--10v~--7v~--5v~--2v~--5v~-||-------------------------------------------||-------------------------------------------|
(3:04)|----------------------------------------------------------------||---------------------------------12b13-----------13b15----------||--------14p12----12b14--14p12-----------14p12----------14p12----||-12b14--------14--------------14--------------14-------------14-||----------------------------------------------------------------||----------------------------------------------------------------|
(3:06)|-------------------------------10v~--12v~--15v~-||-/17v~--15v~--13v~--10-11-13v~------------------||------------------------------------------------||------------------------------------------------||------------------------------------------------||------------------------------------------------|
(3:11)|-12p8---------8h12p8---------8h13p8---------8h13p8---------8-||------10---10--------10---10--------10---10--------10---10---||---------9--------------9--------------9--------------9------||-------------------------------------------------------------||-------------------------------------------------------------||-------------------------------------------------------------|
(3:14)|-/15~~~~~~~-||------------||------------||------------||------------||------------|
Guitar 2:(2:53)|-------------------------------------------------------------||-------------------------------------------------------------||-------------------------------------------------------------||-------------------------------------------------------------||-------------------------------------------------------------||-------------------------------------------------------------|
(2:56)|---------------------------------------------------------------||---------------------------------------------------------------||-----------------------------------------------------------5-7-||---------------------------------------------------------------||---------------------------------------------------------------||---------------------------------------------------------------|
(2:59)|------------------------------------------||------------------------------------------||-9v~--10v~--7v~--9v~----------------------||----------------------10v~--9v~--5v~--9v~-||------------------------------------------||------------------------------------------|
(3:04)|----------------------------------------------------------------||----------------------------------------------------------------||----------------------------------------------------------------||----------------------------------------------------------------||----------------------------------------------------------------||----------------------------------------------------------------|
(3:06)|--------------------------------------------12v~-||-/13v~--12v~--10v~--------10v~--12v~--13v~-------||--------------------10-12------------------------||-------------------------------------------------||-------------------------------------------------||-------------------------------------------------|
(3:11)|-------------------------------------------------------------||-------------------------------------------------------------||-------------------------------------------------------------||-------------------------------------------------------------||-------------------------------------------------------------||-------------------------------------------------------------|
(3:14)|-/15~~~~~~~-||------------||------------||------------||------------||------------|
POST-SOLO---Guitar 1:(3:14)|---------------------------------------------------||---------------------------------------------------||-/5-5-5-5-5-7--9--9v~--5-5-5-5-5-7--9--9--12-12-12-||---------------------------------------------------||---------------------------------------------------||---------------------------------------------------|
(3:19)|------------------------------------------||------------------------------------------||-12--10-10--9--10v~--9-12~--10-10--9--7v~-||------------------------------------------||------------------------------------------||------------------------------------------|
(3:24)|---------------------------------------------------||---------------------------------------------------||-/5-5-5-5-5-7--9--9v~--5-5-5-5-5-7--9--9--12-12-12-||---------------------------------------------------||---------------------------------------------------||---------------------------------------------------|
(3:29)|------------------------------------------||------------------------------------------||-12--10-10--9--10v~--9-12~--10-10--9--7v~-||------------------------------------------||------------------------------------------||------------------------------------------|
Guitar 2:(3:14)|-------------------------------------------------------||-------------------------------------------------------||-------------------------------------------------------||-/7-7-7-7-7-9--10--10v~--7-7-7-7-7-9--10--10--14-14-14-||-------------------------------------------------------||-------------------------------------------------------|
(3:19)|--------------------------------------------||--------------------------------------------||--------------------------------------------||-14--12-12--10--12v~--10-14~--12-12--10-9v~-||--------------------------------------------||--------------------------------------------|
(3:24)|-------------------------------------------------------||-------------------------------------------------------||-------------------------------------------------------||-/7-7-7-7-7-9--10--10v~--7-7-7-7-7-9--10--10--14-14-14-||-------------------------------------------------------||-------------------------------------------------------|
(3:29)|--------------------------------------------||--------------------------------------------||--------------------------------------------||-14--12-12--10--12v~--10-14~--12-12--10-9v~-||--------------------------------------------||--------------------------------------------|
CHORUS--- [repeat CHORUS 2x] (3:34-4:14) "Don't tell me where are we laying your cemetery... Don't try to silence and bury me... Don't push me 'cause I won't go quietly... I'd rather die with dignity... Don't tell me where are we laying your cemetery... Don't try to silence and bury me... Don't push me 'cause I won't go quietly... I'd rather die with dignity..." OUTRO--- [repeat INTRO x.5] (4:15-4:25)
END WITH---(4:25)|------||------||-2-2--||-2-2--||-0-0--||------|
Tap to rate this tab
 
# A B C D E F G H I J K L M N O P Q R S T U V W X Y Z