Bullet For My Valentine – Fever tab ver. 2

                       Bullet For My Valentine - Fever

1. Your Betrayal
2. Fever
3. The Last Fight
4. A Place Where You Belong
5. Pleasure and Pain
6. Alone
7. Breaking Out, Breaking Down
8. Bittersweet Memories
9. Dignity
10. Begging For Mercy
11. Pretty On The Outside

PLEASE RATE AND LEAVE COMMENTS. I would really like feedback!



1. Your Betrayal

INTRO Part 1---Both guitars:(0:00)|----------------------------------------------------||----------------------------------------------------||----------------------------------------------------||----------------------------------------------------||-000000000--00000--00000----000000000--00000--00000-||-000000000--00000--00000----000000000--00000--00000-| ......... ..... ..... ......... ..... .....
(0:07)|-------------------------------------------------------------------||-------------------------------------------------------------------||-------------------------------------------------------------------||---------------------------------------------------\\\\\\\\\\\\\\\-||-000000000--00000--00000----000000000--00000--0000-\\\PICKSLIDE\\\-||-000000000--00000--00000----000000000--00000--0000-\\\\\\\\\\\\\\\-| ......... ..... ..... ......... ..... ....
INTRO Part 2---Guitar 1:(0:14)[count each note as TWO strums]|---------------------------------------------------------------------||---------------------------------------------------------------------||-7-7-7-7-7-7-7-7-7-7-7-7\3-3-3-3/7-7-7-7-7-7-7-7-7-7-7-7/10-10-10-10-||-x-x-x-x-x-x-x-x-x-x-x-x\x-x-x-x/x-x-x-x-x-x-x-x-x-x-x-x/-x--x--x--x-||-5-5-5-5-5-5-5-5-5-5-5-5\1-1-1-1/5-5-5-5-5-5-5-5-5-5-5-5/-8--8--8--8-||---------------------------------------------------------------------|
(0:21)|---------------------------------------------------------------------||---------------------------------------------------------------------||-7-7-7-7-7-7-7-7-7-7-7-7\3-3-3-3/7-7-7-7-7-7-7-7-7-7-7-7/10-10-10-10-||-x-x-x-x-x-x-x-x-x-x-x-x\x-x-x-x/x-x-x-x-x-x-x-x-x-x-x-x/-x--x--x--x-||-5-5-5-5-5-5-5-5-5-5-5-5\1-1-1-1/5-5-5-5-5-5-5-5-5-5-5-5/-8--8--8--8-||---------------------------------------------------------------------|
Guitar 2:(0:14)|----------------------------------------------------------||----------------------------------------------------------||----------------------------------------------------------||----------------------------------------------------------||-000000000~--00000~--00000~----000000000~--00000~--00000~-||-000000000~--00000~--00000~----000000000~--00000~--00000~-| ......... ..... ..... ......... ..... .....
(0:21)|----------------------------------------------------------||----------------------------------------------------------||----------------------------------------------------------||----------------------------------------------------------||-000000000~--00000~--00000~----000000000~--00000~--00000~-||-000000000~--00000~--00000~----000000000~--00000~--00000~-| ......... ..... ..... ......... ..... .....
INTRO Part 3---Both guitars:(0:28)|---------------------------------------------------------||---------------------------------------------------------||---------------------------------------------------------||---------------------------------------------------------||-000000000--00000--00000----000000000--00000--0000-------||-000000000--00000--00000----000000000--00000--0000--15\\-| ......... ..... ..... ......... ..... ....
INTRO Part 4--- [LEFT-HAND TAPPING](0:35)Guitar 1:|-----------------------------------------------------------------||-----------------------------------------------------------------||-----------------------------------------------------------------||-------------7p0-5p0-3p0-5p0-7p0-8p0-7p0-5p0-7p0-5p0-3p0-5p0-3p0-||-5p0-3p0-5p0-----------------------------------------------------||-----------------------------------------------------------------|
(0:39)|-----------------------------------------------------------------||-----------------------------------------------------------------||-----------------------------------------------------------------||-------------7p0-5p0-3p0-5p0-7p0-8p0-7p0-5p0-7p0-5p0-3p0-5p0-3p0-||-5p0-3p0-5p0-----------------------------------------------------||-----------------------------------------------------------------|
(0:43)|-----------------------------------------------------------------||-----------------------------------------------------------------||-----------------------------------------------------------------||-------------7p0-5p0-3p0-5p0-7p0-8p0-7p0-5p0-7p0-5p0-3p0-5p0-3p0-||-5p0-3p0-5p0-----------------------------------------------------||-----------------------------------------------------------------|
(0:46)|-----------------------------------------------------------------||-----------------------------------------------------------------||-----------------------------------------------------------------||-------------7p0-5p0-3p0-5p0-7p0-8p0-7p0-5p0-7p0-5p0-3p0-5p0-3p0-||-5p0-3p0-5p0-----------------------------------------------------||-----------------------------------------------------------------|
Guitar 2:(0:35)|----------------------------||----------------------------||----------------------------||----------------------------||-000000000~--00000~--00000~-||-000000000~--00000~--00000~-| ......... ..... .....
(0:39)|----------------------------||----------------------------||----------------------------||----------------------------||-000000000~--00000~--00000~-||-000000000~--00000~--00000~-| ......... ..... .....
(0:43)|----------------------------||----------------------------||----------------------------||----------------------------||-000000000~--00000~--00000~-|\|-000000000~--00000~--00000~-| \
......... ..... ..... \ - partial palm mute.(0:46) /|----------------------------| /|----------------------------|/|----------------------------||----------------------------||-000000000~--00000~--00000~-||-000000000~--00000~--00000~-| ......... ..... .....
INTRO Part 5---Guitar 1:(0:50)[THE LAST ONE IS DIFFERENT, SO LOOK FOR THAT]|-----------------------------------------------------------------||-----------------------------------------------------------------||-----------------------------------------------------------------||-------------7p0-5p0-3p0-5p0-7p0-8p0-7p0-5p0-7p0-5p0-3p0-5p0-3p0-||-5p0-3p0-5p0-----------------------------------------------------||-----------------------------------------------------------------|
(0:53)|-----------------------------------------------------------------||-----------------------------------------------------------------||-----------------------------------------------------------------||-------------7p0-5p0-3p0-5p0-7p0-8p0-7p0-5p0-7p0-5p0-3p0-5p0-3p0-||-5p0-3p0-5p0-----------------------------------------------------||-----------------------------------------------------------------|
(0:57)|-----------------------------------------------------------------||-----------------------------------------------------------------||-----------------------------------------------------------------||-------------7p0-5p0-3p0-5p0-7p0-8p0-7p0-5p0-7p0-5p0-3p0-5p0-3p0-||-5p0-3p0-5p0-----------------------------------------------------||-----------------------------------------------------------------|
(1:00)|------------------------------------------------------------------||------------------------------------------------------------------||------------------------------------------------------------------||-------------7p0-5p0-3p0-5p0-7p0-10p0-8p0-7p0-8p0-7p0-5p0-7p0-5p0-||-5p0-3p0-5p0------------------------------------------------------||------------------------------------------------------------------|
Guitar 2:(0:50)|-----------------------------------||-----------------------------------||-----------------------------------||----------0~-------0~-------0~--0~-||-00000000-0~--0000-0~--0000-0~--0~-||-00000000-0~--0000-0~--0000-0~--0~-| ........ .... ....
(0:53)|-------------------------------------||-------------------------------------||-------------------------------------||----------0~-------0~-------12~--10~-||-00000000-0~--0000-0~--0000-12~--10~-||-00000000-0~--0000-0~--0000-12~--10~-| ........ .... ....
(0:57)|-----------------------------------||-----------------------------------||-----------------------------------||----------8~-------8~-------8~--8~-||-88888888-8~--8888-8~--8888-8~--8~-||-88888888-8~--8888-8~--8888-8~--8~-| ........ .... ....
(1:00)|-------------------------------------------------------||---(tens, obviously)-----------------------------------||-------------------------------------------------------||------------------10~-----------------------------12\\-||-1010101010101010-10~--10101010-------------------12\\-||-1010101010101010-10~--10101010--3-00000-3-00000--12\\-| ................ ........ . ..... . .....
INTRO Part 6---Guitar 1:(1:04)|-----------------------------------------------------------------||-----------------------------------------------------------------||-----------------------------------------------------------------||-------------7p0-5p0-3p0-5p0-7p0-8p0-7p0-5p0-7p0-5p0-3p0-5p0-3p0-||-5p0-3p0-5p0-----------------------------------------------------||-----------------------------------------------------------------|
(1:08)|-----------------------------------------------------------------||-----------------------------------------------------------------||-----------------------------------------------------------------||-------------7p0-5p0-3p0-5p0-7p0-8p0-7p0-5p0-7p0-5p0-3p0-5p0-3p0-||-5p0-3p0-5p0-----------------------------------------------------||-----------------------------------------------------------------|
(1:11)|-----------------------------------------------------------------||-----------------------------------------------------------------||-----------------------------------------------------------------||-------------7p0-5p0-3p0-5p0-7p0-8p0-7p0-5p0-7p0-5p0-3p0-5p0-3p0-||-5p0-3p0-5p0-----------------------------------------------------||-----------------------------------------------------------------|
(1:15)|-----------------------------------------------||-----------------------------------------------||-----------------------------------------------||-------------7p0-5p0-3p0-5p0-7p0--7--5--3--2v--||-5p0-3p0-5p0-----------------------------------||-----------------------------------------------|
Guitar 2:(1:04)|-----------------------------------||-----------------------------------||-----------------------------------||----------0~-------0~-------0~--0~-||-00000000-0~--0000-0~--0000-0~--0~-||-00000000-0~--0000-0~--0000-0~--0~-| ........ .... ....
(1:08)|-------------------------------------||-------------------------------------||-------------------------------------||----------0~-------0~-------12~--10~-||-00000000-0~--0000-0~--0000-12~--10~-||-00000000-0~--0000-0~--0000-12~--10~-| ........ .... ....
(1:11)|-----------------------------------||-----------------------------------||-----------------------------------||----------8~-------8~-------8~--8~-||-88888888-8~--8888-8~--8888-8~--8~-||-88888888-8~--8888-8~--8888-8~--8~-| ........ .... ....
(1:15)|----------------------------------------------||----------------------------------------------||----------------------------------------------||------------------10~-------------------------||-1010101010101010-10~--10101010--8--7--5--3v--||-1010101010101010-10~--10101010---------------| ................ ........
VERSE 1---Guitar 1:(1:19)"Am I going insane?...My blood is boiling inside of my..."|----------------------------------------------------||----------------------------------------------------||----------------------------------------------------||-----------------------------------3--------2-------||-0~--0~--0-0--------0~--0~--0-0-------5--3-----3----||-0~--0~--0-0--------0~--0~--0-0-------------------3-| . . . . . . . .
(1:26)"veins...An evil feeling attacks...My body's shaking, there's no turning..."|----------------------------------------------------||----------------------------------------------------||----------------------------------------------------||-----------------------------------3--------2-------||-0~--0~--0-0--------0~--0~--0-0-------5--3-----3----||-0~--0~--0-0--------0~--0~--0-0-------------------3-| . . . . . . . .
(1:33)"back...So take your eyes off the trigger...I'm not to blame if your world turns to..."|--------------------------------------------------------||--------------------------------------------------------||-----------------------------------2b3------------------||----------------------------------------3--2--5b7-------||-0~--0~--0-0--------0~--0~--0-0--------------------3----||-0~--0~--0-0--------0~--0~--0-0-----------------------3-| . . . . . . . .
(1:40)"black...As your eyes start to blister...There's just no hope for our final em-..."|--------------------------------------------------------||--------------------------------------------------------||-----------------------------------2b3------------------||----------------------------------------3--2--5b7-------||-0~--0~--0-0--------0~--0~--0-0--------------------3----||-0~--0~--0-0--------0~--0~--0-0-----------------------3-| . . . . . . . .
Guitar 2:(1:19)|----------------------------------------------------||----------------------------------------------------||----------------------------------------------------||-----------------------------------3--------2-------||-0~--0~--0-0--------0~--0~--0-0-------5--3-----3----||-0~--0~--0-0--------0~--0~--0-0-------------------3-| . . . . . . . .
(1:26)|----------------------------------------------------||----------------------------------------------------||----------------------------------------------------||-----------------------------------3--------2-------||-0~--0~--0-0--------0~--0~--0-0-------5--3-----3----||-0~--0~--0-0--------0~--0~--0-0-------------------3-| . . . . . . . .
(1:33)|--------------------------------------------------------||--------------------------------------------------------||--------------------------------------------------------||-----------------------------------3b5--------2b3-------||-0~--0~--0-0--------0~--0~--0-0---------5--3-------3----||-0~--0~--0-0--------0~--0~--0-0-----------------------3-| . . . . . . . .
(1:40)|--------------------------------------------------------||--------------------------------------------------------||--------------------------------------------------------||-----------------------------------3b5--------2b3-------||-0~--0~--0-0--------0~--0~--0-0---------5--3-------3----||-0~--0~--0-0--------0~--0~--0-0-----------------------3-| . . . . . . . .
PRECHORUS--- Both guitars: (1:47) "brace... So here we are, I'm in your head... I'M IN YOUR HEART!..."
|------------------------------------||------------------------------------||------------------------------------||-0~~~~-----\\\\\\\\\\\\\\\\\\\\\\\\-||-0~~~~-----\\\LONG-ASS PICKSLIDE\\\-||-0~~~~-----\\\\\\\\\\\\\\\\\\\\\\\\-|
CHORUS--- (I think this is played an octave higher... but oh well)Guitar 1:(1:54)[count all OCTAVE notes as TWO strums]"You were told to run away..."|---------------------------------||---------------------------------||-7-7-7-7-7-7-7-7-7-7-7-7-7-7-7-7-||-x-x-x-x-x-x-x-x-x-x-x-x-x-x-x-x-||-5-5-5-5-5-5-5-5-5-5-5-5-5-5-5-5-||---------------------------------|
(1:58)"Soak the place, and light the flame..."|---------------------------------||---------------------------------||-7-7-7-7-7-7-7-7-7-7-7-7-7-7-5-5-||-x-x-x-x-x-x-x-x-x-x-x-x-x-x-x-x-||-5-5-5-5-5-5-5-5-5-5-5-5-5-5-3-3-||---------------------------------|
(2:01)"Pay the price for your betrayal..."|---------------------------------||---------------------------------||-3-3-3-3-3-3-3-3-3-3-3-3-3-3-3-3-||-x-x-x-x-x-x-x-x-x-x-x-x-x-x-x-x-||-1-1-1-1-1-1-1-1-1-1-1-1-1-1-1-1-||---------------------------------|
(2:05)"Your betrayal, your betrayal..."|---------------------------------------||---------------------------------------||-5-5-5-5-5-5-5-5-----------------------||-x-x-x-x-x-x-x-x------------------12\\-||-3-3-3-3-3-3-3-3------------------12\\-||-----------------3-00000-3-00000--12\\-| . ..... . .....
(2:09)"I was told to stay away..."|---------------------------------||---------------------------------||-7-7-7-7-7-7-7-7-7-7-7-7-7-7-7-7-||-x-x-x-x-x-x-x-x-x-x-x-x-x-x-x-x-||-5-5-5-5-5-5-5-5-5-5-5-5-5-5-5-5-||---------------------------------|
(2:12)"Those two words I can't obey..."|---------------------------------||---------------------------------||-7-7-7-7-7-7-7-7-7-7-7-7-7-7-5-5-||-x-x-x-x-x-x-x-x-x-x-x-x-x-x-x-x-||-5-5-5-5-5-5-5-5-5-5-5-5-5-5-3-3-||---------------------------------|
(2:16)"Pay the price for your betrayal..."|---------------------------------||---------------------------------||-3-3-3-3-3-3-3-3-3-3-3-3-3-3-3-3-||-x-x-x-x-x-x-x-x-x-x-x-x-x-x-x-x-||-1-1-1-1-1-1-1-1-1-1-1-1-1-1-1-1-||---------------------------------|
(2:19)"Your betrayal, your betrayal..."|------------------------------||------------------------------||-5-5-5-5-5-5-5-5--------------||-x-x-x-x-x-x-x-x--7--5--3--2v-||-3-3-3-3-3-3-3-3--------------||------------------------------|
Guitar 2:(1:54)|-----------------------------------||-----------------------------------||-----------------------------------||----------0~-------0~-------0~--0~-||-00000000-0~--0000-0~--0000-0~--0~-||-00000000-0~--0000-0~--0000-0~--0~-| ........ .... ....
(1:58)|-------------------------------------||-------------------------------------||-------------------------------------||----------0~-------0~-------12~--10~-||-00000000-0~--0000-0~--0000-12~--10~-||-00000000-0~--0000-0~--0000-12~--10~-| ........ .... ....
(2:01)|-----------------------------------||-----------------------------------||-----------------------------------||----------8~-------8~-------8~--8~-||-88888888-8~--8888-8~--8888-8~--8~-||-88888888-8~--8888-8~--8888-8~--8~-| ........ .... ....
(2:05)|-------------------------------------------------------||-------------------------------------------------------||-------------------------------------------------------||------------------10~-----------------------------12\\-||-1010101010101010-10~--10101010-------------------12\\-||-1010101010101010-10~--10101010--3-00000-3-00000--12\\-| ................ ........ . ..... . .....
(2:09)|-----------------------------------||-----------------------------------||-----------------------------------||----------0~-------0~-------0~--0~-||-00000000-0~--0000-0~--0000-0~--0~-||-00000000-0~--0000-0~--0000-0~--0~-| ........ .... ....
(2:12)|-------------------------------------||-------------------------------------||-------------------------------------||----------0~-------0~-------12~--10~-||-00000000-0~--0000-0~--0000-12~--10~-||-00000000-0~--0000-0~--0000-12~--10~-| ........ .... ....
(2:16)|-----------------------------------||-----------------------------------||-----------------------------------||----------8~-------8~-------8~--8~-||-88888888-8~--8888-8~--8888-8~--8~-||-88888888-8~--8888-8~--8888-8~--8~-| ........ .... ....
(2:19)|----------------------------------------------||----------------------------------------------||----------------------------------------------||------------------10~-------------------------||-1010101010101010-10~--10101010--8--7--5--3v--||-1010101010101010-10~--10101010---------------| ................ ........
VERSE 2--- [repeat VERSE 1] (2:23-2:51) "Is it my turn to die?... My heart is pounding as I say goodbye... So now I dance in the flames... I love you crying and screaming my name... You said that we’d be forever... How could you kill me and lie to my face... Now that we can’t be together... There’s just no hope for our final embrace..." repeat PRECHORUS--- (2:52-2:58) "So here we are... I'm in your head... I'm in your heart..." repeat CHORUS--- (2:59-3:27) "You were told to run away... Soak the place and light the flame... Pay the price for your betrayal... Your betrayal, your betrayal... I was told to stay away... Those two words I can't obey... Pay the price for your betrayal... Your betrayal, your betrayal..."
BRIDGE Part 1---(3:28)Guitar 1:|-------------------------------------------------||-10----10----10----10----11----11----11----11----||----10----10----10----10----10----10----10----10-||-------------------------------------------------||-------------------------------------------------||-------------------------------------------------|
(3:31)|---------------------------------------------||-8----8----8----8----10----10----11-10-------||---10---10---10---10----10----10-------12-10-||---------------------------------------------||---------------------------------------------||---------------------------------------------|
(3:35)|-------------------------------------------------||-10----10----10----10----11----11----11----11----||----10----10----10----10----10----10----10----10-||-------------------------------------------------||-------------------------------------------------||-------------------------------------------------|
(3:38) "GO!!!!..."|---------------------------------||-8----8----8----8----10----10----||---10---10---10---10----10----10-||---------------------------------||---------------------------------||---------------------------------|
Guitar 2:(3:28)|-------------------------------------------------||-------------------------------------------------||-------------------------------------------------||-0~~~~-------------------------------------------||-0~~~~-------------------------------------------||-0~~~~-------------------------------------------|
(3:31)|---------------------------------------------||---------------------------------------------||---------------------------------------------||-~~~~~~~~------------------------------------||-~~~~~~~~------------------------3-1-0-1-----||-~~~~~~~~------------------------3-1-0-1-----| . . . .
(3:35)|-------------------------------------------------||-------------------------------------------------||-------------------------------------------------||-0~~~~-------------------------------------------||-0~~~~-------------------------------------------||-0~~~~-------------------------------12\\--------|
(3:38) "GO!!!!..."|---------------------------------||---------------------------------||---------------------------------||---------------------------------||-0-0-0-0-0-0-0-0-0-0-0-0---------||-0-0-0-0-0-0-0-0-0-0-0-0---------| . . . . . . . . . . . .
BRIDGE Part 2---Guitar 1:(3:42)|-------------------------------------------------||-10----10----10----10----11----11----11----11----||----10----10----10----10----10----10----10----10-||-------------------------------------------------||-------------------------------------------------||-------------------------------------------------|
(3:45)|-------------------------------------------||-8----8----8----8----10----10----8----8----||---10---10---10---10----10----10---10---10-||-------------------------------------------||-------------------------------------------||-------------------------------------------|
(3:49)|-------------------------------------------------||-10----10----10----10----11----11----11----11----||----10----10----10----10----10----10----10----10-||-------------------------------------------------||-------------------------------------------------||-------------------------------------------------|
(3:52)|---------------------------------------------||-8----8----8----8----10----10----11-10-------||---10---10---10---10----10----10-------12-10-||---------------------------------------------||---------------------------------------------||---------------------------------------------|
(3:56)|-------------------------------------------------||-10----10----10----10----11----11----11----11----||----10----10----10----10----10----10----10----10-||-------------------------------------------------||-------------------------------------------------||-------------------------------------------------|
(3:59)|-------------------------------------------||-8----8----8----8----10----10----8----8----||---10---10---10---10----10----10---10---10-||-------------------------------------------||-------------------------------------------||-------------------------------------------|
(4:02)|-------------------------------------------------||-10----10----10----10----11----11----11----11----||----10----10----10----10----10----10----10----10-||-------------------------------------------------||-------------------------------------------------||-------------------------------------------------|
(4:06)|---------------------------------------------||-8----8----8----8----10----10----11-10-------||---10---10---10---10----10----10-------12-10-||---------------------------------------------||---------------------------------------------||---------------------------------------------|
Guitar 2:(3:42)|----------------------------||----------------------------||----------------------------||----------------------------||-0-0-0~--0-0-0---0~-0-0-0-0-||-0-0-0~--0-0-0---0~-0-0-0-0-| . . . . . . . . . . .
(3:45)|----------------------------------||----------------------------------||----------------------------------||----------------------------------||-0-0-0~--0-0-0---0-0-0-0~--0~--0~-||-0-0-0~--0-0-0---0-0-0-0~--0~--0~-| . . . . . . . . . . . .
(3:49)|----------------------------||----------------------------||----------------------------||----------------------------||-0-0-0~--0-0-0---0~-0-0-0-0-||-0-0-0~--0-0-0---0~-0-0-0-0-| . . . . . . . . . . .
(3:52)|-------------------------------||-------------------------------||-------------------------------||-------------------------------||-0-0-0--0-0-0--3-1-0-1-8-7-5-1-||-0-0-0--0-0-0--3-1-0-1-8-7-5-1-| . . . . . . . . . . . . . .
(3:56)|------------------------------||------------------------------||------------------------------||------------------------------||-0-0-0~--0-0-0~---0~-0-0-0-0~-||-0-0-0~--0-0-0~---0~-0-0-0-0~-| . . . . . . . . . . .
(3:59)|-----------------------------------||-----------------------------------||-----------------------------------||-----------------------------------||-0-0-0~--0-0-0~---0-0-0-0~--0~--0~-||-0-0-0~--0-0-0~---0-0-0-0~--0~--0~-| . . . . . . . . . . . .
(4:02)|------------------------------||------------------------------||------------------------------||------------------------------||-0-0-0~--0-0-0~---0~-0-0-0-0~-||-0-0-0~--0-0-0~---0~-0-0-0-0~-| . . . . . . . . . . .
(4:06)|-------------------------------||-------------------------------||-------------------------------||-------------------------------||-0-0-0--0-0-0--3-1-0-1-8-7-5-1-||-0-0-0--0-0-0--3-1-0-1-8-7-5-1-| . . . . . . . . . . . . . .
repeat PRECHORUS--- [but have a lingering effect] (4:10-4:16) "So here we are... I'm in your head... I'm in your heart..." repeat CHORUS--- (4:17-4:45) "You were told to run away... Soak the place and light the flame... Pay the price for your betrayal... Your betrayal, your betrayal... I was told to stay away... Those two words I can't obey... Pay the price for your betrayal... Your betrayal, your betrayal..."
OUTRO---Both guitars(4:46)|-------------------------||-------------------------||-------------------------||-------------------------||-000000000--00000--00000-||-000000000--00000--00000-| ......... ..... .....
2. Fever
INTRO Part 1---Guitar 1:(0:00)|---------------------------------------------||---------------------------------------------||---------------------------------------------||---------------------------------------------||---------------------------------------------||-3-00000-5-00000-6-00000-5-00000-3-000-5-000-| ..... ..... ..... ..... ... ...
(0:02)|---------------------------------------------||---------------------------------------------||---------------------------------------------||---------------------------------------------||---------------------------------------------||-3-00000-5-00000-6-00000-5-00000-3-000-5-000-| ..... ..... ..... ..... ... ...
(0:05)|---------------------------------------------||---------------------------------------------||---------------------------------------------||---------------------------------------------||---------------------------------------------||-3-00000-5-00000-6-00000-5-00000-3-000-5-000-| ..... ..... ..... ..... ... ...
(0:08)|-------------------------||-------------------------||-------------------------||-0~---3~---5~------------||-0~---3~---5~--------3*v-||-0~---3~---5~---6v~------|
Guitar 2:(0:00)|---------------------------------------------||---------------------------------------------||---------------------------------------------||-0-------------------------------------------||-0-------------------------------------------||-0-------------------------------------------|
(0:02)|---------------------------------------------||---------------------------------------------||---------------------------------------------||-0~~~~---------------------------------------||-0~~~~---------------------------------------||-0~~~~---------------------------12\\\\------|
(0:05)|---------------------------------------------||---------------------------------------------||---------------------------------------------||---------------------------------------------||---------------------------------------------||-3-00000-5-00000-6-00000-5-00000-3-000-5-000-| ..... ..... ..... ..... ... ...
(0:08)|-------------------------||-------------------------||-------------------------||-0~---3~---5~------------||-0~---3~---5~--------3*v-||-0~---3~---5~---6v~------|
INTRO PART 2---Guitar 1:(0:11)|------------------------------------||------------------------------------||------------------------------------||-3-0--0~--0-3-0--0~--0--------------||-3-0--0~--0-3-0--0~--0--------------||-3-0--0~--0-3-0--0~--0--6-5-3-6-5-3-| . . . . . .
(0:14)|-------------------------------||-------------------------------||-------------------------------||-3-0--0~--0--------3-0-3-0-3-5-||-3-0--0~--0------5-3-0-3-0-3-5-||-3-0--0~--0--/6--5-3-0-3-0-3-5-|
(0:16)|------------------------------------||------------------------------------||-----------------------10-10-10-10--||-3-0--0~--0-3-0--0~--0--x--x--x--x--||-3-0--0~--0-3-0--0~--0--8--8--8--8--||-3-0--0~--0-3-0--0~--0--------------|
(0:19)|-------------------------------||-------------------------------||-------------------------------||-3-0--0~--0--1~--0-1-0-1-3-3-3-||-3-0--0~--0--1~--0-1-0-1-3-3-3-||-3-0--0~--0--1~--0-1-0-1-3-3-3-|
(0:22)|------------------------------------||------------------------------------||------------------------------------||-3-0--0~--0-3-0--0~--0--------------||-3-0--0~--0-3-0--0~--0--------------||-3-0--0~--0-3-0--0~--0--6-5-3-6-5-3-| . . . . . .
(0:25)|-------------------------------||-------------------------------||-------------------------------||-3-0--0~--0--------3-0-3-0-3-5-||-3-0--0~--0------5-3-0-3-0-3-5-||-3-0--0~--0--/6--5-3-0-3-0-3-5-|
(0:27)|------------------------------------||------------------------------------||-----------------------10-10-10-10--||-3-0--0~--0-3-0--0~--0--x--x--x--x--||-3-0--0~--0-3-0--0~--0--8--8--8--8--||-3-0--0~--0-3-0--0~--0--------------|
(0:30)|-------------------------------||-------------------------------||-------------------------------||-3-0--0~--0--1~--0-1-0-1-3-3-3-||-3-0--0~--0--1~--0-1-0-1-3-3-3-||-3-0--0~--0--1~--0-1-0-1-3-3-3-|
Guitar 2:(0:11)|------------------------------------||------------------------------------||------------------------------------||-3-0--0~--0-3-0--0~--0--------------||-3-0--0~--0-3-0--0~--0--------------||-3-0--0~--0-3-0--0~--0--6-5-3-6-5-3-| . . . . . .
(0:14)|-------------------------------||-------------------------------||-------------------------------||-3-0--0~--0--------3-0-3-0-3-5-||-3-0--0~--0------5-3-0-3-0-3-5-||-3-0--0~--0--/6--5-3-0-3-0-3-5-|
(0:16)|-------------------------------||-------------------------------||-----------------------7-7-7-7-||-3-0--0~--0-3-0--0~--0-x-x-x-x-||-3-0--0~--0-3-0--0~--0-5-5-5-5-||-3-0--0~--0-3-0--0~--0---------|
(0:19)|-------------------------------||-------------------------------||-------------------------------||-3-0--0~--0--1~--0-1-0-1-3-3-3-||-3-0--0~--0--1~--0-1-0-1-3-3-3-||-3-0--0~--0--1~--0-1-0-1-3-3-3-|
(0:22)|------------------------------------||------------------------------------||------------------------------------||-3-0--0~--0-3-0--0~--0--------------||-3-0--0~--0-3-0--0~--0--------------||-3-0--0~--0-3-0--0~--0--6-5-3-6-5-3-| . . . . . .
(0:25)|-------------------------------||-------------------------------||-------------------------------||-3-0--0~--0--------3-0-3-0-3-5-||-3-0--0~--0------5-3-0-3-0-3-5-||-3-0--0~--0--/6--5-3-0-3-0-3-5-|
(0:27)|-------------------------------||-------------------------------||-----------------------7-7-7-7-||-3-0--0~--0-3-0--0~--0-x-x-x-x-||-3-0--0~--0-3-0--0~--0-5-5-5-5-||-3-0--0~--0-3-0--0~--0---------|
(0:30)|-------------------------------||-------------------------------||-------------------------------||-3-0--0~--0--1~--0-1-0-1-3-3-3-||-3-0--0~--0--1~--0-1-0-1-3-3-3-||-3-0--0~--0--1~--0-1-0-1-3-3-3-|
INTRO Part 3---Guitar 1:(0:33)|-------------------------------------||-------------------------------------||-------------------------------------||-------------------------------------||-------------------------------------||-0-0-0-0-0-0-0-0-0-0-0-0-6-5-3-6-5-3-| . . . . . . . . . . . . . .
(0:36)|-------------------------------------||-------------------------------------||-------------------------------------||-------------------------------------||-------------------------------------||-0-0-0-0-0-0-0-0-0-0-0-0-6-5-3-6-5-3-| . . . . . . . . . . . . . .
(0:38)|-------------------------------------||-------------------------------------||-------------------------------------||-------------------------------------||-------------------------------------||-0-0-0-0-0-0-0-0-0-0-0-0-6-5-3-6-5-3-| . . . . . . . . . . . . . .
(0:41)|-------------------------------------||-------------------------------------||-------------------------------------||-------------------------------------||-------------------------------------||-0-0-0-0-0-0-0-0-0-0-0-0-6-5-3-6-5-3-| . . . . . . . . . . . . . .
Guitar 2:(0:33)|-------------------------------------||-------------------------------------||-------------------------------------||-0-----------------------------------||-0-----------------------------------||-0-----------------------------------|
(0:36)|-------------------------------------||-------------------------------------||-------------------------------------||-------------------------------------||-------------------------------------||-------------------------------------|
(0:38)|-------------------------------------||-------------------------------------||-------------------------------------||-0~~~~-------------------------------||-0~~~~-------------------------------||-0~~~~-------------------------------|
(0:41)|-------------------------------------||-------------------------------------||-------------------------------------||-////////////------------------------||-////////////------------------------||-////////////------------6-5-3-6-5-3-| . . . . . .
VERSE 1---Both guitars:(0:44)"It's hot as hell in here, every..."|-------------------------------------||-------------------------------------||-------------------------------------||-------------------------------------||---0-0---0-0---0-0---0-0-------------||-0-0-0-0-0-0-0-0-0-0-0-0-6-5-3-6-5-3-| . . . . . . . . . . . . . .
(0:47)"body wants to lose control..."|-------------------------------------||-------------------------------------||-------------------------------------||-------------------------------------||---0-0---0-0---0-0---0-0-------------||-0-0-0-0-0-0-0-0-0-0-0-0-6-5-3-6-5-3-| . . . . . . . . . . . . . .
(0:50)"The music's turned up loud, the..."|-------------------------------------||-------------------------------------||-------------------------------------||-------------------------------------||---3-3---3-3---3-3---3-3-------------||-3-3-3-3-3-3-3-3-3-3-3-3-6-5-3-6-5-3-| . . . . . . . . . . . . . .
(0:52)"lights are turned down low..."|---------------------------------------||---------------------------------------||---------------------------------------||---------------------------------------||---0-0---0-0---0-0---0-0---------------||-2-2-2-2-2-2-2-2-2-2-2-2-10-9-7-10-9-7-| . . . . . . . . . . . . . .
(0:55)"Wound up like a hurricane and my..."|-------------------------------------||-------------------------------------||-------------------------------------||-------------------------------------||---0-0---0-0---0-0---0-0-------------||-0-0-0-0-0-0-0-0-0-0-0-0-6-5-3-6-5-3-| . . . . . . . . . . . . . .
(0:58)"head is about to explode..."|-------------------------------------||-------------------------------------||-------------------------------------||-------------------------------------||---0-0---0-0---0-0---0-0-------------||-0-0-0-0-0-0-0-0-0-0-0-0-6-5-3-6-5-3-| . . . . . . . . . . . . . .
(1:01)"Can't wait to stop this breath, can't wait..."|-------------------------------------||-------------------------------------||-------------------------------------||-------------------------------------||---3-3---3-3---3-3---3-3-------------||-3-3-3-3-3-3-3-3-3-3-3-3-6-5-3-6-5-3-| . . . . . . . . . . . . . .
(1:03)"wait to let it go..."|---------------------------------------||---------------------------------------||---------------------------------------||---------------------------------------||---0-0---0-0---0-0---0-0---------------||-2-2-2-2-2-2-2-2-2-2-2-2-10-9-7-10-9-7-| . . . . . . . . . . . . . .
PRECHORUS---Guitar 1:(1:06)"Woah, oh, she hits the stage..."|------------------------------||------------------------------||------------------------------||-0~~~~------------------------||-0~~~~------------------------||-0~~~~------------------------|
(1:09)"Whoa, oh, she makes me crave..."|------------------------------||------------------------------||------------------------------||-\\\\\\\\\\\\\\\\\\\\\\\\\\\--||-\\\\\\\\\\\\\\\\\\\\\\\\\\\--||-\\\\\\\\\\\\\\\\\\\\\\\\\\\--|
(1:12)"So come and take my money..."|---------------------------------------------||---------------------------------------------||---------------------------------------------||---------------------------------------------||---------------------------------------------||-3-00000-5-00000-6-00000-5-00000-3-000-5-000-| ..... ..... ..... ..... ... ...
(1:15)"Whoa, oh, oh, oh, I can..."|------------------||------------------||------------------||-0~---3~---5~---6-||-0~---3~---5~---6-||-0~---3~---5~---6-|
Guitar 2:(1:06)|------------------------------||------------------------------||------------------------------||-0~~~~------------------------||-0~~~~------------------------||-0~~~~------------------------|
(1:09)|------------------------------||------------------------------||------------------------------||-0~~~~------------------------||-0~~~~------------------------||-0~~~~------------------------|
(1:12)|---------------------------------------------||---------------------------------------------||---------------------------------------------||---------------------------------------------||---------------------------------------------||-3-00000-5-00000-6-00000-5-00000-3-000-5-000-| ..... ..... ..... ..... ... ...
(1:15)|------------------||------------------||------------------||-0~---3~---5~---6-||-0~---3~---5~---6-||-0~---3~---5~---6-|
CHORUS---(1:17)"feel her fever..."|------------------------------------||------------------------------------||------------------------------------||-3-0--0~--0-3-0--0~--0--------------||-3-0--0~--0-3-0--0~--0--------------||-3-0--0~--0-3-0--0~--0--6-5-3-6-5-3-| . . . . . .
(1:20)"taking over, can you..."|-------------------------||-------------------------||------------3~~~~--5~~~~-||-3-0--0~--0-3~~~~--5~~~~-||-3-0--0~--0-1~~~~--3~~~~-||-3-0--0~--0--------------|
(1:23)"see her fever..."|------------------------------------||------------------------------------||-----------------------10-10-10-10--||-3-0--0~--0-3-0--0~--0--x--x--x--x--||-3-0--0~--0-3-0--0~--0--8--8--8--8--||-3-0--0~--0-3-0--0~--0--------------|
(1:26)"taking over me, I can..."|-------------------------------||-------------------------------||-------------------------------||-3-0--0~--0--1~--0-1-0-1-3-3-3-||-3-0--0~--0--1~--0-1-0-1-3-3-3-||-3-0--0~--0--1~--0-1-0-1-3-3-3-|
(1:28)"feel her fever..."|------------------------------------||------------------------------------||------------------------------------||-3-0--0~--0-3-0--0~--0--------------||-3-0--0~--0-3-0--0~--0--------------||-3-0--0~--0-3-0--0~--0--6-5-3-6-5-3-| . . . . . .
(1:31)"taking over, got a..."|-------------------------||-------------------------||------------3~~~~--5~~~~-||-3-0--0~--0-3~~~~--5~~~~-||-3-0--0~--0-1~~~~--3~~~~-||-3-0--0~--0--------------|
(1:34)"dirty feeling, that..."|------------------------------------||------------------------------------||-----------------------10-10-10-10--||-3-0--0~--0-3-0--0~--0--x--x--x--x--||-3-0--0~--0-3-0--0~--0--8--8--8--8--||-3-0--0~--0-3-0--0~--0--------------|
(1:37)"you're the remedy..."|-------------------------------||-------------------------------||-------------------------------||-3-0--0~--0--1~--0-1-0-1-3-3-3-||-3-0--0~--0--1~--0-1-0-1-3-3-3-||-3-0--0~--0--1~--0-1-0-1-3-3-3-|
Guitar 2:(1:17)|------------------------------------||------------------------------------||------------------------------------||-3-0--0~--0-3-0--0~--0--------------||-3-0--0~--0-3-0--0~--0--------------||-3-0--0~--0-3-0--0~--0--6-5-3-6-5-3-| . . . . . .
(1:20)|-------------------------||-------------------------||------------3~~~~--5~~~~-||-3-0--0~--0-3~~~~--5~~~~-||-3-0--0~--0-1~~~~--3~~~~-||-3-0--0~--0--------------|
(1:23)|-------------------------------||-------------------------------||-----------------------7-7-7-7-||-3-0--0~--0-3-0--0~--0-x-x-x-x-||-3-0--0~--0-3-0--0~--0-5-5-5-5-||-3-0--0~--0-3-0--0~--0---------|
(1:26)|-------------------------------||-------------------------------||-------------------------------||-3-0--0~--0--1~--0-1-0-1-3-3-3-||-3-0--0~--0--1~--0-1-0-1-3-3-3-||-3-0--0~--0--1~--0-1-0-1-3-3-3-|
(1:28)|------------------------------------||------------------------------------||------------------------------------||-3-0--0~--0-3-0--0~--0--------------||-3-0--0~--0-3-0--0~--0--------------||-3-0--0~--0-3-0--0~--0--6-5-3-6-5-3-| . . . . . .
(1:31)|-------------------------||-------------------------||------------3~~~~--5~~~~-||-3-0--0~--0-3~~~~--5~~~~-||-3-0--0~--0-1~~~~--3~~~~-||-3-0--0~--0--------------|
(1:34)|-------------------------------||-------------------------------||-----------------------7-7-7-7-||-3-0--0~--0-3-0--0~--0-x-x-x-x-||-3-0--0~--0-3-0--0~--0-5-5-5-5-||-3-0--0~--0-3-0--0~--0---------|
(1:37) |-------------------------------||-------------------------------||-------------------------------||-3-0--0~--0--1~--0-1-0-1-3-3-3-||-3-0--0~--0--1~--0-1-0-1-3-3-3-||-3-0--0~--0--1~--0-1-0-1-3-3-3-|
POSTCHORUS---Both guitars:(1:40)"Whoaaaa... come on!!"|-------------------------------------||-------------------------------------||-------------------------------------||-------------------------------------||-------------------------------------||-0-0-0-0-0-0-0-0-0-0-0-0-6-5-3-6-5-3-| . . . . . . . . . . . . . .
VERSE 2--- [repeat VERSE 1] (1:42-2:04) "So I'm looking for a spark... I gotta buy it to reignite... Don't worry, you won't get burned... So don't, don't put up a fight... Push hard to breaking point... And I'm ready to overload... No limits and no regrets... This time to sell my soul..." PRECHORUS--- [repeat PRECHORUS] (2:05-2:16) "Whoa, oh, you're what I want... Whoa, oh, you're what I need... So come and take my money... Whoa, oh, oh, oh, I can..." CHORUS--- [repeat CHORUS] (2:17-2:37) "feel her fever taking over... Can you feel her fever taking over me?... I can feel her fever taking over... Got a dirty feeling that you're the remedy..."
EXTRA CHORUS PART---(2:38)Both guitars:|-------------------||-------------------||-------------------||-1~--0-1-0-1-3-3-3-||-1~--0-1-0-1-3-3-3-||-1~--0-1-0-1-3-3-3-|
BRIDGE Part 1---(2:40)Both guitars:|-------------------------------||-------------------------------||-------------------------------||-0~~~~~~~~~~~~~~~~-------------||-0~~~~~~~~~~~~~~~~-------------||-0~~~~~~~~~~~~~~~~-------------|
(2:50)"Come here you naughty girl, you're such a tease..."|----------------------------------||----------------------------------||----------------------------------||-3p0----3p0------------3p0----3p0-||-3p0----3p0------------3p0----3p0-||-3p0----3p0------------3p0----3p0-|
(2:56)"You look so beautiful down on your knees..."|----------------------------------||----------------------------------||----------------------------------||-3p0----3p0------------3p0----3p0-||-3p0----3p0------------3p0----3p0-||-3p0----3p0------------3p0----3p0-|
BRIDGE Part 2---Guitar 1:(3:02)"Keep on those high-heel shoes..."|----------------------------------------||----------------------------------------||----------------------------------------||----------------------------------------||----------------------------------------||-5*-5*-5*-5*-5*-5*-5*-5*---5*-//////-2*-| ^artificial harmonics ^slide down to the 5th, all A.H.
(3:04)"rip off all your clothes..."|----------------------------------------||----------------------------------------||----------------------------------------||----------------------------------------||----------------------------------------||-5*-5*-5*-5*-5*-5*-5*-5*---2*-//////-5*-| ^slide down to the 2nd, all A.H.
(3:07)"You smell so fucking good, it..."|----------------------------------------||----------------------------------------||----------------------------------------||----------------------------------------||----------------------------------------||-5*-5*-5*-5*-5*-5*-5*-5*---5*-//////-2*-|
(3:10)"makes me lose control..."|----------------------------------------||----------------------------------------||----------------------------------------||----------------------------------------||----------------------------------------||-5*-5*-5*-5*-5*-5*-5*-5*---2*-//////-5*-|
(3:13)"Losing control, you're all I want..."|----------------------------------------||----------------------------------------||----------------------------------------||----------------------------------------||----------------------------------------||-5*-5*-5*-5*-5*-5*-5*-5*---5*-//////-2*-|
(3:15)"Losing control, you're all I need..."|----------------------------------------||----------------------------------------||----------------------------------------||----------------------------------------||----------------------------------------||-5*-5*-5*-5*-5*-5*-5*-5*---2*-//////-5*-|
(3:18)"Losing control, you're all I want..."|----------------------------------------||----------------------------------------||----------------------------------------||----------------------------------------||----------------------------------------||-5*-5*-5*-5*-5*-5*-5*-5*---5*-//////-2*-|
(3:21)"I can't let you go!"|----------------------------------------||----------------------------------------||----------------------------------------||----------------------------------------||----------------------------------------||-5*-5*-5*-5*-5*-5*-5*-5*---2*-//////-5*-|
Guitar 2:(3:02)|----------------------------------------||----------------------------------------||----------------------------------------||-3p0-------3p0--------------------------||-3p0-------3p0--------------------------||-3p0-------3p0-------------5*-//////-2*-|
(3:04)|----------------------------------------||----------------------------------------||----------------------------------------||-3p0-------3p0--------------------------||-3p0-------3p0--------------------------||-3p0-------3p0-------------2*-//////-5*-|
(3:07)|----------------------------------------||----------------------------------------||----------------------------------------||-3p0-------3p0--------------------------||-3p0-------3p0--------------------------||-3p0-------3p0-------------5*-//////-2*-|
(3:10)|----------------------------------------||----------------------------------------||----------------------------------------||-3p0-------3p0--------------------------||-3p0-------3p0--------------------------||-3p0-------3p0-------------2*-//////-5*-|
(3:13)|----------------------------------------||----------------------------------------||----------------------------------------||-3p0-------3p0--------------------------||-3p0-------3p0--------------------------||-3p0-------3p0-------------5*-//////-2*-|
(3:15)|----------------------------------------||----------------------------------------||----------------------------------------||-3p0-------3p0--------------------------||-3p0-------3p0--------------------------||-3p0-------3p0-------------2*-//////-5*-|
(3:18)|----------------------------------------||----------------------------------------||----------------------------------------||-3p0-------3p0--------------------------||-3p0-------3p0--------------------------||-3p0-------3p0-------------5*-//////-2*-|
(3:21)|----------------------------------------||----------------------------------------||----------------------------------------||-3p0-------3p0--------------------------||-3p0-------3p0--------------------------||-3p0-------3p0-------------2*-//////-5*-|
(3:24) WHOA, OH, OH, OH, I CAN... CHORUS--- [repeat CHORUS] (3:27-3:48) "feel her fever taking over... Can you feel her fever taking over me?... I can feel her fever taking over... Got a dirty feeling that you're the remedy..."
OUTRO---(3:49)Both guitars:"That you're the remedy..."|-------------------||-----------4-4-4-4-||-----------7-7-7-7-||-1~--0-1-0---------||-1~--0-1-0---------||-1~--0-1-0---------|
(3:51)"You are the remedy..."|-------------------------------------------------------||-------------------------------------------------------||-------------------------------------------------------||-1~--------1-3-3-3-1~--------1-3-3-3-1~--------------0-||-1~--0-1-0-1-3-3-3-1~--0-1-0-1-3-3-3-1~--0-1-0-1-3-1-0-||-1~--0-1-0-1-3-3-3-1~--0-1-0-1-3-3-3-1~--0-1-0-1-3-1-0-| . . . . . . . . . . . .
3. The Last Fight
INTRO---Both guitars:(0:02)|-----------------------------------------------------------------------------||-8------8------8------8----------------8------8------8------8----------------||-x------x------x------x------5----7----x------x------x------x------5----7----||-9------9------9------9------x----x----9------9------9------9------x----x----||-7-7777-7-7777-7-7777-7-7777-3-33-5-55-7-7777-7-7777-7-7777-7-7777-3-33-5-55-||-----------------------------------------------------------------------------| .... .... .... .... .. .. .... .... .... .... .. ..
(0:07)|---------3~~---------------5~~---------||-----3~~~~~~-----------5~~~~~~---------||---------------------------------------||-5~~~~~~~~~~-------7~~~~~~~~~~---------||-3~~~~~~~~~~-------5~~~~~~~~~~---------||---------------------------------------|
(0:13)|-----------------------------------------------------------------------------||-8------8------8------8----------------8------8------8------8----------------||-x------x------x------x------5----7----x------x------x------x------5----7----||-9------9------9------9------x----x----9------9------9------9------x----x----||-7-7777-7-7777-7-7777-7-7777-3-33-5-55-7-7777-7-7777-7-7777-7-7777-3-33-5-55-||-----------------------------------------------------------------------------| .... .... .... .... .. .. .... .... .... .... .. ..
(0:18)|---------3~~---------------5~~-----------||-----3~~~~~~-----------5~~~~~~-----------||-----------------------------------------||-5~~~~~~~~~~-------7~~~~~~~~~~----12\\\\-||-3~~~~~~~~~~-------5~~~~~~~~~~----12\\\\-||----------------------------------12\\\\-|
PREVERSE---Guitar 1:(0:23)|------------------------------------------------------------------||------------------------------------------------------------------||------------------------------------------------------------------||--------5-------5-------5---------------5-------5-------5---------||------------------------------------------------------------------||-2~--2----2-2-2---2-2-2---2-0-2-4-2~--2---2-2-2---2-2-2---2-0-2-4-|
(0:28)|-----------------------------------------------------------------||-----------------------------------------------------------------||-----------------------------------------------------------------||-------5-------5-------5---------------5-------5-------5---------||-----------------------------------------------------------0-2-4-||-2~--2---2-2-2---2-2-2---2-0-2-4-2~--2---2-2-2---2-2-2---2-0-2-4-| . . .
Guitar 2:(0:23)|-----------------------------------------------------------------||-----------------------------------------------------------------||--------------let ring throughout the top part-------------------||-2~~~~~~~~-------------------------------------------------------||-2~~~~~~~~-------------------------------------------------------||-2~~~~~~~~-------------------------------------------------------|
(0:28)|-----------------------------------------------------------------||-----------------------------------------------------------------||-----------------------------------------------------------------||-----------------------------------------------------------------||-------2~------2~------2~------2~------2~------2~------2~--0-2-4-||-------2~------2~------2~------2~------2~------2~------2~--0-2-4-| . . . . . . . . . .
VERSE 1---Guitar 1:(0:33)"I wanna stand beside you, I'm gonna try to feel the..."|-----------------------------------------------------------------||-----------------------------------------------------------------||-----------------------------------------------------------------||-------5-------5-------5---------------5-------5-------5---------||-2~--2---2-2-2---2-2-2---2-0-2-4-2~--2---2-2-2---2-2-2---2-0-2-4-||-2~--2---2-2-2---2-2-2---2-0-2-4-2~--2---2-2-2---2-2-2---2-0-2-4-|
(0:38)"pain I'm going through, till the death you've seen is through..."|-----------------------------------------------------------------||-----------------------------------------------------------------||-----------------------------------------------------------------||-------4-------4-------4---------------4-------4---5--4--2--4-5v-||-0~--0---0-0-0---0-0-0---0-0-2-4-0~--0---0-0-0---0---------------||-0~--0---0-0-0---0-0-0---0-0-2-4-0~--0---0-0-0---0---------------|
(0:44)"Cold sweats, hallucinations, I wanna speed to stop the..."|-----------------------------------------------------------------||-----------------------------------------------------------------||-----------------------------------------------------------------||-------5-------5-------5---------------5-------5-------5---------||-2~--2---2-2-2---2-2-2---2-0-2-4-2~--2---2-2-2---2-2-2---2-0-2-4-||-2~--2---2-2-2---2-2-2---2-0-2-4-2~--2---2-2-2---2-2-2---2-0-2-4-|
(0:49)"hell I'm going through, the addiction's taking you..."|-----------------------------------------------------------------||-----------------------------------------------------------------||-----------------------------------------------------------------||-------4-------4-------4---------------4-------4---5--4--2--4-5v-||-0~--0---0-0-0---0-0-0---0-0-2-4-0~--0---0-0-0---0---------------||-0~--0---0-0-0---0-0-0---0-0-2-4-0~--0---0-0-0---0---------------|
Guitar 2:(0:33)|-----------------------------------------------------------------||-----------------------------------------------------------------||-----------------------------------------------------------------||-------5-------5-------5---------------5-------5-------5---------||-2~--2---2-2-2---2-2-2---2-0-2-4-2~--2---2-2-2---2-2-2---2-0-2-4-||-2~--2---2-2-2---2-2-2---2-0-2-4-2~--2---2-2-2---2-2-2---2-0-2-4-|
(0:38)|-----------------------------------------------------------------||-----------------------------------------------------------------||-----------------------------------------------------------------||-------4-------4-------4---------------4-------4---9--5--7--5-9v-||-0~--0---0-0-0---0-0-0---0-0-2-4-0~--0---0-0-0---0---------------||-0~--0---0-0-0---0-0-0---0-0-2-4-0~--0---0-0-0---0---------------|
(0:44)|-----------------------------------------------------------------||-----------------------------------------------------------------||-----------------------------------------------------------------||-------5-------5-------5---------------5-------5-------5---------||-2~--2---2-2-2---2-2-2---2-0-2-4-2~--2---2-2-2---2-2-2---2-0-2-4-||-2~--2---2-2-2---2-2-2---2-0-2-4-2~--2---2-2-2---2-2-2---2-0-2-4-|
(0:49)|-----------------------------------------------------------------||-----------------------------------------------------------------||-----------------------------------------------------------------||-------4-------4-------4---------------4-------4---9--5--7--5-9v-||-0~--0---0-0-0---0-0-0---0-0-2-4-0~--0---0-0-0---0---------------||-0~--0---0-0-0---0-0-0---0-0-2-4-0~--0---0-0-0---0---------------|
PRECHORUS--- [listen for strumming pattern... I'm too lazy to figure itout perfectly...]Guitar 1:(0:54)"Can you see me through bloodshot..."|---------------------------------------------------------------||-8---8---8-8-8-8-7--7--7-7-7-7-7-8---8---8-8-8-7--7--7-7-7-7-7-||-7---7---7-7-7-7-7--7--7-7-7-7-7-7---7---7-7-7-7--7--7-7-7-7-7-||---------------------------------------------------------------||---------------------------------------------------------------||---------------------------------------------------------------|
(0:59)"eyes? Should I fight for what is right or let it..."|---------------------------------------------------------------||-8---8---8-8-8-8-7--7--7-7-7-7-7-7---7---7-7-7-7--7--7-7-7-7-7-||-7---7---7-7-7-7-7--7--7-7-7-7-7-7---7---7-7-7-7--7--7-7-7-7-7-||---------------------------------------------------------------||---------------------------------------------------------------||---------------------------------------------------------------|
(1:04)"die? Now I'm choking on force-fed..."|---------------------------------------------------------------||-8---8---8-8-8-8-7--7--7-7-7-7-7-8---8---8-8-8-7--7--7-7-7-7-7-||-7---7---7-7-7-7-7--7--7-7-7-7-7-7---7---7-7-7-7--7--7-7-7-7-7-||---------------------------------------------------------------||---------------------------------------------------------------||---------------------------------------------------------------|
(1:09)"lies, do I fight or let it die? I will..."|-------------------------------------------------------------------||-8---8---10-10-10-7--7--7-7-7-7-7--8-8-8-7-7-7-8-8-8-7-7-7-8-8-7-7-||-7---7---7--7--7--7--7--7-7-7-7-7--7-7-7-7-7-7-7-7-7-7-7-7-7-7-7-7-||-------------------------------------------------------------------||-------------------------------------------------------------------||-------------------------------------------------------------------|
Guitar 2:(0:54)|--------------------------------------------------------------||--------------------------------------------------------------||-5~~~~~~~~-----------------------5~~~~~~~~--------------------||-5~~~~~~~~-----------------------5~~~~~~~~--------------------||-3~~~~~~~~-----------------------3~~~~~~~~--------------------||--------------------------------------------------------------|
(0:59)|--------------------------------------------------------------||--------------------------------------------------------------||--------------------------------------------------------------||-2~~~~~~~~-----------------------0~~~~~~~~--------------------||-2~~~~~~~~-----------------------0~~~~~~~~--------------------||-2~~~~~~~~-----------------------0~~~~~~~~--------------------|
(1:04)|--------------------------------------------------------------||--------------------------------------------------------------||-5~~~~~~~~-----------------------5~~~~~~~~--------------------||-5~~~~~~~~-----------------------5~~~~~~~~--------------------||-3~~~~~~~~-----------------------3~~~~~~~~--------------------||--------------------------------------------------------------|
(1:09)|-------------------------------------------------------------------||-------------------------------------------------------------------||-7~~~~~~~~-------------------------7-----7-----7-----7-----7---7---||-7~~~~~~~~-------------------------7-7-7-7-7-7-7-7-7-7-7-7-7-7-7-7-||-5~~~~~~~~-------------------------5-5-5-5-5-5-5-5-5-5-5-5-5-5-5-5-||-------------------------------------------------------------------| . . . . . .
Please rate this tab:
x1.0