Bullet For My Valentine – The Last Fight tab ver. 7

-------------------------------------------------------------------------------
	        The Last Fight - Bullet For My Valentine
-------------------------------------------------------------------------------

Tabbed by: TJKillerGuitar6

Tuning: Drop C
        C,G,C,F,A,D (drop d one full step lower)

Intro

Padge and Matt

|---------------------------------------------------------------------------||---------------------------------------------------------------------------||---------------------------------------------------------------------------||9-------10------9-------10------5---7-9-------10------9-------10------5---7||7-7-7-7-7-7-7-7-7-7-7-7-7-7-7-7-3-0-5-7-7-7-7-7-7-7-7-7-7-7-7-7-7-7-7-3-0-5||---------------------------------------------------------------------------|
* * * * * * * * * * * * * * * * * * * * * * * * * *|----------3-------------5----------------|-------||-----------------------------------------|-------||-----5-------------7-----------Let-ring--|-------| x2|---5---5---------7---7-------------------|-------||3-------------5--------------------------|-------||-----------------------------------------|17\\\\\|(second time only)
Pre-verse Padge
|---------------------------||---------------------------||---------------------------||----5------5------5-------5| x4|---------------------------||2~2---2~~2---2~~2---2-0-2--| * * * * * *
Matt
|---------------------------------------------------------------------------||---------------------------------------------------------------------------||---------------------------------------------------------------------------||2-----------------------------------2----2----2----2----2----2----2--0-2-5-||2--sustain--------------------------2----2----2----2----2----2----2--0-2-5-||2-----------------------------------2----2----2----2----2----2----2--0-2-5-|
Verse Padge and Matt
|---------------------------------------------------------------------------||---------------------------------------------------------------------------||---------------------------------------------------------------------------||----5------5------5-------5-----5------5------5-------5------4------4------||---------------------------------------------------------------------------||2~2---2~~2---2~~2---2-0-2---2~2---2~~2---2~~2---2-0-2---0--0---0--0---0--0-|
* * * * * * * * * * * * * * * * * * Padge's Matt's Part Part|--------------------------|---------|---------||--------------------------|---------|---------||--------------------------|---------|5-4-2-5-4| x2|4-------4------4------4---|5-4-2-5-2|---------||--------------------------|---------|---------||--2-0-2---0--0---0--0---0-|-------------------| * * * * * * * *
Pre-chorus: Padge
|-----------------------------------| |----------------------------||8--8--8-8-8-8--7--7--7-7-7-7-------| |7-----7-----7-----7-----7--7||7--7--7-7-7-7--7--7--7-7-7-7-------| |7-7-7-7-7-7-7-7-7-7-7-7-7--7||-----------------------------------|x7|----------------------------||-----------------------------------| |----------------------------||-----------------------------------| |----------------------------|
Matt
|-Let-ring---------------------------------------------------------------||------------------------------------------------------------------------||5-----5------------------5-----5-----7------7-----7-----7-----7-----7--7||5-----5------2-----0-----5-----5-----7------7-----7-----7-----7-----7--7||3-----3------2-----0-----3-----3-----5------5-5-5-5-5-5-5-5-5-5-5-5-5--5||-------------2-----0----------------------------------------------------|
Chorus (same as intro) Padge and Matt
|---------------------------------------------------------------------------||---------------------------------------------------------------------------||---------------------------------------------------------------------------||9-------10------9-------10------5---7-9-------10------9-------10------5---7||7-7-7-7-7-7-7-7-7-7-7-7-7-7-7-7-3-0-5-7-7-7-7-7-7-7-7-7-7-7-7-7-7-7-7-3-0-5||---------------------------------------------------------------------------|
* * * * * * * * * * * * * * * * * * * * * * * * * *|----------3-------------5----------------|-------||-----------------------------------------|-------||-----5-------------7-----------Let-ring--|-------| x2|---5---5---------7---7-------------------|-------||3-------------5--------------------------|-------||-----------------------------------------|17\\\\\|(second time only)
Pre-verse 2 Padge
|----------------------------||----------------------------||----------------------------||----5------5------5-------5-||----------------------------||2-2---2~~2---2~~2---2-0-2---| * * * * * * *
Matt
|----------------------------||----------------------------||----------------------------||2---------------------0-2-5-||2---sustain-----------0-2-5-||2---------------------0-2-5-|
Verse Pre-chorus Chorus Solo section: Padge
|15-19-15----15----------15-19-0-17-0-15-14-0--14-17-14----14----------14||---------17----17----17--------------------------------15----15----15---||------------------14--------------------------------------------14------||------------------------------------------------------------------------||------------------------------------------------------------------------||------------------------------------------------------------------------|
|17-0-15-0-14-0-12-0--12-15-12----12----------12-15-0-14-0-12-0-11-0-||------------------------------13----13----13------------------------||---------------------------------------12---------------------------||--------------------------------------------------------------------||--------------------------------------------------------------------||--------------------------------------------------------------------|
|11-14-11----11-------------------------11-12-15-14-||---------12----12----12-------------12-------------||------------------11----11-------11----------------||------------------------------13-------------------||---------------------------14----------------------||---------------------------------------------------|
|15-19-15----15----------15-19-0-17-0-15-14-0--14-17-14----14----------14||---------17----17----17--------------------------------15----15----15---||------------------14--------------------------------------------14------||------------------------------------------------------------------------||------------------------------------------------------------------------||------------------------------------------------------------------------|
|17-0-15-0-14-0-12-0--12-15-12----12----------12-15-0-14-0-12-0-11-0-||------------------------------13----13----13------------------------||---------------------------------------12---------------------------||--------------------------------------------------------------------||--------------------------------------------------------------------||--------------------------------------------------------------------|
|11-14-11----11-------------------------11-12-15-17-17~~14-15-14~~12-14-12~~||---------12----12----12-------------12-------------------------------------||------------------11----11-------11----------------------------------------||------------------------------13-------------------------------------------||---------------------------14----------------------------------------------||---------------------------------------------------------------------------|Harmony guitar: (only second time through)
|19-22-19----19----------19-22-0-20-0-19-0-17-0--17-20----17----------17-||---------20----20----20-------------------------------19----19----19----||------------------19-------------------------------------------17-------||------------------------------------------------------------------------||------------------------------------------------------------------------||------------------------------------------------------------------------|
|20-0-19-0-17-0-15-0--15-19-15----15----------15-19-0-17-0-15-0-14-0-||------------------------------17----17----17------------------------||---------------------------------------16---------------------------||--------------------------------------------------------------------||--------------------------------------------------------------------||--------------------------------------------------------------------|
|14-17-14----14-------------------------14-15-19-20-19~~17-19-17~~||---------16----16----16-------------16---------------------------||------------------16----16-------16------------------------------||------------------------------16---------------------------------||---------------------------18------------------------------------||-----------------------------------------------------------------|
|15-17-15~~12-15-12~~~~~~~||-------------------------||-------------------------||-------------------------||-------------------------||-------------------------|
Under Solo Matt
|--------------------------------------------------------------||--------------------------------------------------------------||9-9--9--5-5--5--7-7--7--4-4--4--5-5--5--2-2--2--4-4--4--4-4--4||9-9--9--5-5--5--7-7--7--4-4--4--5-5--5--2-2--2--4-4--4--4-4--4|x2|7-7--7--3-3--3--5-5--5--2-2--2--3-3--3--0-0--0--2-2--2--2-2--2||--------------------------------------------------------------|
Matt
|---------------------------||---------------------------||---------------------------||----5------5------5-------5| x4|---------------------------||2~2---2~~2---2~~2---2-0-2--| * * * * * *
Gtr 3
|---------------------------------------------------------------------------||---------------------------------------------------------------------------||---------------------------------------------------------------------------||2-----------------------------------2----2----2----2----2----2----2--2-4-5-||2--sustain--------------------------2----2----2----2----2----2----2--2-4-5-||2-----------------------------------2----2----2----2----2----2----2--2-4-5-|
Pre-chorus Chorus Outro Padge
|---------------------------||---------------------------||---------------------------||----5------5------5-------5| x4|---------------------------||2~2---2~~2---2~~2---2-0-2--| * * * * * *
Matt
|-------------------------------------------------------||-------------------------------------------------------||-------------------------------------------------------||2----------------0-2-5-2----0-2-5-2----0-2-5-2----0-2-5||2----------------0-2-5-2----0-2-5-2----0-2-5-2----0-2-5||2----------------0-2-5-2----0-2-5-2----0-2-5-2----0-2-5|
Both guitars
|---------------------------||---------------------------||---------------------------||----5------5------5-------5| x4|---------------------------||2~2---2~~2---2~~2---2-0-2--|
* * * * * *|------------------||------------------||------------------||2--2--2-4-5-2-----||2--2--2-4-5-2-----||2--2--2-4-5-2-----|
Please rate this tab:
x1.0