Bullet For My Valentine - Ten Years Today tab

Greetz Harmen

there are a few mistakes but sounds cool :)

Tuning: C G C F A D

GUITAR 1

INTRO (part 1)|------------------0--------------------------------------------||------------------0--------------------------------------------||---------------------------------------------------------------||-10---0-22-2-2------2-0-2----9---7~------4-5----4-5-4----------||-10---0-22-2-2------2-0-2-------------3------5-----------------||-10---0-22-2-2------2-0-2--------------------------------------| . .. . .
|-----------0---------------------------------------||-----------0---------------------------------------||---------------------------------------------------||-0-22-2-2-----2-0-2----9---7~-----9-7-9-10-9-7-----||-0-22-2-2-----2-0-2--------------------------------||-0-22-2-2-----2-0-2--------------------------------| . .. . .
INTRO (part 2)|-----------0-----------------------------------------------------||-----------0-----------------------------------------------------||-----------------------------------------------------------------||-0-22-2-2------2-0-2----9---7h9p7h9p7h9p7h9------4-5----4-5-4----||-0-22-2-2------2-0-2--------------------------3------5-----------||-0-22-2-2------2-0-2---------------------------------------------| . .. . .
|-----------0---------------------------------------||-----------0---------------------------------------||---------------------------------------------------||-0-22-2-2-----2-0-2----9---7~-----9-7-9-10-9-7-----||-0-22-2-2-----2-0-2--------------------------------||-0-22-2-2-----2-0-2--------------------------------| . .. . .
VERSE|----------------------------------------------------------------------||----------------------------------------------------------------------||-5-5-55-5-5-5-55-5-5-5-4-7----------5-5-55-5-5-5-55-5-5-5-4-7---------||-5-5-55-5-5-5-55-5-5-------5-7-5-4--5-5-55-5-5-5-55-5-5-------5-7-5-4-||-3-3-33-3-3-3-33-3-3----------------3-3-33-3-3-3-33-3-3---------------||----------------------------------------------------------------------| . . .. . . . .. . . . . . . . . . . . .. . . . .. . . . . . . . . .
|-------------------------------------------------------------------||-------------------------------------------------------------------||-------------------------------------------------------------------||-2-2-2-2-2-2--2---5-4---7/9/7p5--2-2-2-2-2-2--2---5-4---7/9/7p5----||-2-2-2-2-2-2--2-------5----------2-2-2-2-2-2--2-------5------------||-2-2-2-2-2-2--2------------------2-2-2-2-2-2--2--------------------| . . . . . . . . . .
PRE-CHORUS (listen for timings)|-------------------------------------------------------------------||-------------------------------------------------------------------||-----------------------9~------7~----------------------------------||-0~------------2~------9~------7~-------2---2----------------------||-0~------------2~------7~------5~-------2---2-(guitar 2 plays here)||-0~------------2~-----------------------2---2----------------------|
CHORUS (part 1) - be careful when playing the choruses as parts 1 and 2 change positionthe song - see song order at the bottom|----------------------------------------------------------||----------------------------------------------------------||-5---5--5-5-5---------------------------------------------||-5---5--5-5-5-0---0--0-0-0-2---2--2-2-2-4---4-4-5---5-5---||-3---3--3-3-3-0---0--0-0-0-2---2--2-2-2-4---4-4-5---5-5---||--------------0---0--0-0-0-2---2--2-2-2-4---4-4-5---5-5---| . . . . .
|----------------------------------------------------------||----------------------------------------------------------||-5---5--5-5-5-7---7--7-7-7--------------------------------||-5---5--5-5-5-7---7--7-7-7-2---2--2-2-2-2-----------------||-3---3--3-3-3-5---5--5-5-5-2---2--2-2-2-2----------0h2p0--||---------------------------2---2--2-2-2-2--2-5-4-0--------| . . . .
CHORUS (part 2)|----------------------------------------------------------||----------------------------------------------------------||-5---5--5-5-5---------------------------------------------||-5---5--5-5-5-0---0--0-0-0-2---2--2-2-2-4---4-4-5---5-5---||-3---3--3-3-3-0---0--0-0-0-2---2--2-2-2-4---4-4-5---5-5---||--------------0---0--0-0-0-2---2--2-2-2-4---4-4-5---5-5---| . . . . .
|----------------------------------------------------------||----------------------------------------------------------||-5---5--5-5-5-7---7--7-7-7--------------------------------||-5---5--5-5-5-7---7--7-7-7-2---2--2-2-2-2--2--------------||-3---3--3-3-3-5---5--5-5-5-2---2--2-2-2-2--2--------------||---------------------------2---2--2-2-2-2--2--------------| . . . . "10 Years Today!"
BRIDGE (again, listen for timings for first part)|------------------------------------------------------------------||------------------------------------------------------------------||-----------------------------5~------------7~---------------------||-2~--------------4~----5~----5~------------7~---------------------||-2~--------------4~----5~----3~------------5~------xx-----------xx||-2~--------------4~----5~--------------------------xx-pickslide-xx|
|------------------------------------| |----------------||------------------------------------| |----------------||------------------------------------| |----------------||-0-7-9-0-9-12-0-7-9-0-9-12-0-7-9-7--| X7 |-9~---7~---5~---||------------------------------------| |----------------||------------------------------------| |----------------|
|------------------------------------------------||------------------------------------------------||------------------------------------------------||-2-2-2-2-2-2-2-2-2~---------2-2-2-2-2-2-3---0---| X3|-2-2-2-2-2-2-2-2-2~---------2-2-2-2-2-2-3---0---||-2-2-2-2-2-2-2-2-2~---------2-2-2-2-2-2-3---0---| . . . . . . . . . . . . . .
|-------------------------------||-------------------------------||-------------------------------||-2-2-2-2-2-2-2-2-2-2-2-2-2-----||-2-2-2-2-2-2-2-2-2-2-2-2-2-----||-2-2-2-2-2-2-2-2-2-2-2-2-2-----| . . . . . . .
OUTRO|--------------------||--------------------||--------------------||-2-2-2-2-2-2-2-2-2--||-2-2-2-2-2-2-2-2-2--||-2-2-2-2-2-2-2-2-2--| . . . . . . . .
GUITAR 2
INTRO (part 1)|------------------0--------------------------------------------||------------------0--------------------------------------------||---------------------------------------------------------------||-10---0-22-2-2------2-0-2----------------4-5----4-5-4----------||-10---0-22-2-2------2-0-2---10---9~----3------5----------------||-10---0-22-2-2------2-0-2--------------------------------------| . .. . .
|-----------0---------------------------------------||-----------0---------------------------------------||---------------------------------------------------||-0-22-2-2-----2-0-2--------------------------------||-0-22-2-2-----2-0-2----10--9~----10-9-10-12-10-9---||-0-22-2-2-----2-0-2--------------------------------| . .. . .
INTRO (part 2)|-----------0-----------------------------------------------------||-----------0-----------------------------------------------------||-----------------------------------------------------------------||-0-22-2-2------2-0-2-----------------------------4-5----4-5-4----||-0-22-2-2------2-0-2------10--9h10p9-etc.------3------5----------||-0-22-2-2------2-0-2---------------------------------------------| . .. . .
|-----------0---------------------------------------||-----------0---------------------------------------||---------------------------------------------------||-0-22-2-2-----2-0-2--------------------------------||-0-22-2-2-----2-0-2----10--9~----10-9-10-12-10-9---||-0-22-2-2-----2-0-2--------------------------------| . .. . .
VERSE|----------------------------------------------------------------------||----------------------------------------------------------------------||-5-5-55-5-5-5-55-5-5-5-4-7----------5-5-55-5-5-5-55-5-5-5-4-7---------||-5-5-55-5-5-5-55-5-5-------5-7-5-4--5-5-55-5-5-5-55-5-5-------5-7-5-4-||-3-3-33-3-3-3-33-3-3----------------3-3-33-3-3-3-33-3-3---------------||----------------------------------------------------------------------| . . .. . . . .. . . . . . . . . . . . .. . . . .. . . . . . . . . .
|-------------------------------------------------------------------||-------------------------------------------------------------------||------------------4-2-0---------------------------4-2-0------------||-2-2-2-2-2-2--2---------4/5/4p0--2-2-2-2-2-2--2---------4/5/4p0----||-2-2-2-2-2-2--2------------------2-2-2-2-2-2--2--------------------||-2-2-2-2-2-2--2------------------2-2-2-2-2-2--2--------------------| . . . . . . . . . .
PRE-CHORUS (listen for timings)|-------------------------------------------------------------------------||-------------------------------------------------------------------------||-------------------------------------------------------------------------||-0---5p0-4p0-5p0-7p0-5p0-4h5p4-2~-------5---0--5p0-4p0-5p0-7p0-5p0-4h5p4-||-0-----------------------------------------------------------------------||-0-----------------------------------------------------------------------| |U S E P H A S E R U S E P H A S E R U S E P H A S E R|
|----------------------------||----------------------------||----------------------------||-2---2----------------------||-2---2--3-3-3-3-2-2-2-2-----||-2---2------------------3*--| . . . . . . . .
CHORUS (part 1) - be careful when playing the choruses as parts 1 and 2 change positionthe song - see song order at the bottom|----------------------------------------------------------||----------------------------------------------------------||-5---5--5-5-5-7---7--7-7-7--------------------------------||-5---5--5-5-5-7---7--7-7-7-2---2--2-2-2-4---4-4-5---5-5---||-3---3--3-3-3-5---5--5-5-5-2---2--2-2-2-4---4-4-5---5-5---||---------------------------2---2--2-2-2-4---4-4-5---5-5---| . . . . .
|----------------------------------------------------------||----------------------------------------------------------||-5---5--5-5-5-7---7--7-7-7--------------------------------||-5---5--5-5-5-7---7--7-7-7-2---2--2-2-2-2-----------------||-3---3--3-3-3-5---5--5-5-5-2---2--2-2-2-2----------0h2p0--||---------------------------2---2--2-2-2-2--2-5-4-0--------| . . . .
CHORUS (part 2)|----------------------------------------------------------||----------------------------------------------------------||-5---5--5-5-5-7---7--7-7-7--------------------------------||-5---5--5-5-5-7---7--7-7-7-2---2--2-2-2-4---4-4-5---5-5---||-3---3--3-3-3-5---5--5-5-5-2---2--2-2-2-4---4-4-5---5-5---||---------------------------2---2--2-2-2-4---4-4-5---5-5---| . . . . .
|----------------------------------------------------------||----------------------------------------------------------||-5---5--5-5-5-7---7--7-7-7--------------------------------||-5---5--5-5-5-7---7--7-7-7-2---2--2-2-2-2--2--------------||-3---3--3-3-3-5---5--5-5-5-2---2--2-2-2-2--2--------------||---------------------------2---2--2-2-2-2--2--------------| . . . . "10 Years Today!"
BRIDGE|---------------------------------| |---------------------------------||---------------------------------| |---------------------------------||---------------------------------| |---------------------------------||-0-5-7-0-5-7-0-5-7-0-5-7-0-4-5-4-|X1 |-0-4-5-0-5-7-0-4-5-0-5-7-0-4-5-4-|X3|---------------------------------| |---------------------------------||---------------------------------| |---------------------------------| |U S E P H A S E R U S E P H A S E R U S E P H A S E R|
(switch back to distortion now)|----------------------------------| |----------------||----------------------------------| |----------------||----------------------------------| |----------------||-0-4-5-0-5-7-0-4-5-0-5-7-0-4-5-4--| X7 |-5~---4~--------||----------------------------------| |-----------5~---||----------------------------------| |----------------|
|------------------------------------------------||------------------------------------------------||------------------------------------------------||-2-2-2-2-2-2-2-2-2~---------2-2-2-2-2-2-3---0---| X3|-2-2-2-2-2-2-2-2-2~---------2-2-2-2-2-2-3---0---||-2-2-2-2-2-2-2-2-2~---------2-2-2-2-2-2-3---0---| . . . . . . . . . . . . . .
|-------------------------------||-------------------------------||-------------------------------||-2-2-2-2-2-2-2-2-2-2-2-2-2-----||-2-2-2-2-2-2-2-2-2-2-2-2-2-----||-2-2-2-2-2-2-2-2-2-2-2-2-2-----| . . . . . . .
OUTRO|--------------------||--------------------||--------------------||-2-2-2-2-2-2-2-2-2--||-2-2-2-2-2-2-2-2-2--||-2-2-2-2-2-2-2-2-2--| . . . . . . . .
Tap to rate this tab
 
# A B C D E F G H I J K L M N O P Q R S T U V W X Y Z