Bullet For My Valentine - 10 Years Today tab

-------------------------------------------------------------------------------
			     10 Years Today - Bullet For My Valentine
-------------------------------------------------------------------------------


Tabbed by:    ryu
Email:        poison_your_valentine@hotmail.com
Youtube:      www.youtube.com/ryulovesyou
Myspace:      www.myspace.com/we_tremble_tonight

Tuning: CGCFAD

D||---------------0---------|----------------------|-------------------|A||---------------5---------|----------------------|-------------------|F||---------------4---------|----------------------|-------------------|C||--2-2-2--2--2--2------2--|----0--2----9------7--|-------------------|G||--2-2-2--2--2--2------2--|----0--2--------------|----------------3--|C||--2-2-2--2--2--2------2--|----0--2--------------|-------------------|
|------------------------|---------------0---------|----------------------||------------------------|---------------5---------|----------------------||------------------------|---------------4---------|----------------------||----4--5-------4--5--4--|--2-2-2--2--2--2------2--|----0--2----9------7--||----------5-------------|--2-2-2--2--2--2------2--|----0--2--------------||------------------------|--2-2-2--2--2--2------2--|----0--2--------------|
|-------------------|------------------------|---------------0---------||-------------------|------------------------|---------------5---------||-------------------|------------------------|---------------4---------||----------------9--|----7---9---10---9---7--|--2-2-2--2--2--2------2--||-------------------|------------------------|--2-2-2--2--2--2------2--||-------------------|------------------------|--2-2-2--2--2--2------2--|
|-----------------------|---------------------------------||-----------------------|---------------------------------||-----------------------|---------------------------------||----0--2----9------7-9-|--7-9-7-9-7-9-7-9-7-9-7-9-7-9----||----0--2---------------|------------------------------3--||----0--2---------------|---------------------------------|
|------------------------|---------------0---------|----------------------||------------------------|---------------5---------|----------------------||------------------------|---------------4---------|----------------------||----4--5-------4--5--4--|--2-2-2--2--2--2------2--|----0--2----9------7--||----------5-------------|--2-2-2--2--2--2------2--|----0--2--------------||------------------------|--2-2-2--2--2--2------2--|----0--2--------------|
|-------------------|------------------------|-------------------------------||-------------------|------------------------|-------------------------------||-------------------|------------------------|----------5----------5------5--||----------------9--|----7---9---10---9---7--|--5-5-5-5-5--5-5-5-5-5--5-5-5--||-------------------|------------------------|--3-3-3-3-3--3-3-3-3-3--3-3-3--||-------------------|------------------------|-------------------------------|
|-------------------------|-------------------------------||-------------------------|-------------------------------||----5--4--7--------------|----------5----------5------5--||-------------5--7--5--4--|--5-5-5-5-5--5-5-5-5-5--5-5-5--||-------------------------|--3-3-3-3-3--3-3-3-3-3--3-3-3--||-------------------------|-------------------------------|
|-------------------------|-----------------------|-------------------------||-------------------------|-----------------------|-------------------------||----5--4--7--------------|-----------------------|----5--4--0--2--4--2--0--||-------------5--7--5--4--|--2----2-------2----2--|-------------------------||-------------------------|--2----2----2--2----2--|-------------------------||-------------------------|--2----2----2--2----2--|-------------------------|
|-----------------------|-------------------------||-----------------------|-------------------------||-----------------------|----5--4--0--2--4--2--0--||--2----2-------2----2--|-------------------------||--2----2----2--2----2--|-------------------------||--2----2----2--2----2--|-------------------------|
|-------------------------------|-------------------------||-------------------------------|-------------------------||----------5----------5------5--|----5--4--7--------------||--5-5-5-5-5--5-5-5-5-5--5-5-5--|-------------5--7--5--4--||--3-3-3-3-3--3-3-3-3-3--3-3-3--|-------------------------||-------------------------------|-------------------------|
|-------------------------------|-------------------------||-------------------------------|-------------------------||----------5----------5------5--|----5--4--7--------------||--5-5-5-5-5--5-5-5-5-5--5-5-5--|-------------5--7--5--4--||--3-3-3-3-3--3-3-3-3-3--3-3-3--|-------------------------||-------------------------------|-------------------------|
|-----------------------|-------------------------|-----------------------||-----------------------|-------------------------|-----------------------||-----------------------|----5--4--0--2--4--2--0--|-----------------------||--2----2-------2----2--|-------------------------|--2----2-------2----2--||--2----2----2--2----2--|-------------------------|--2----2----2--2----2--||--2----2----2--2----2--|-------------------------|--2----2----2--2----2--|
|-------------------------|-------------------|------------------||-------------------------|-------------------|------------------||----5--4--0--2--4--2--0--|-------------------|------------------||-------------------------|--0----------------|------------------||-------------------------|--0----------------|------------------||-------------------------|--0----------------|------------------|
|-------------------|--0----------------|-------------------|------------------||-------------------|--5----------------|-------------------|------------------||-------------------|--4----------------|-------------------|------------------||--2----------------|--2----------------|--0----------------|------------------||--2----------------|--2----------------|--0----------------|------------------||--2----------------|--2----------------|--0----------------|------------------|
|--------------------------|-------------------------||--------------------------|-------------------------||--------------------------|-------------------------||--2------2----------------|-------------------------||--2------2----10--10--10--|--10--9--9--9--9--9~-----||--2------2----10--10--10--|--10--9--9--9--9---------|
|------------------------------|---------------------------||------------------------------|---------------------------||------------------------------|---------------------------||--10----10----------------12--|------12----------------5--||--10----10----10--10--10--12--|------12----12--12--12--5--||--10----10----10--10--10--12--|------12----12--12--12--5--|
|-----------------------|-------------------------|----------------------------||-----------------------|-------------------------|----------------------------||-----------------------|-------------------------|----------------------------||------5-------------7--|----------9----------10--|------10----------------12--||------5----5--5--5--7--|----7--7--9----9--9--10--|------10----10--10--10--12--||------5----5--5--5--7--|----7--7--9----9--9--10--|------10----10--10--10--12--|
|---------------------------|-----------------------||---------------------------|-----------------------||---------------------------|-----------------------||------12----------------5--|------5----------------||------12----12--12--12--5--|------5----5--5--5--5--||------12----12--12--12--5--|------5----5--5--5--5--|
|---------------------------------------------------------||----------------------------|----------------------------||----------------------------|----------------------------||----------------------------|----------------------------||------------------------10--|------10----10--10--10--12--||--5--7--5--0--8--10--7--10--|------10----10--10--10--12--|
|---------------------------|-----------------------|-------------------------||---------------------------|-----------------------|-------------------------||---------------------------|-----------------------|-------------------------||------12----------------5--|------5-------------7--|----------9----------10--||------12----12--12--12--5--|------5----5--5--5--7--|----7--7--9----9--9--10--||------12----12--12--12--5--|------5----5--5--5--7--|----7--7--9----9--9--10--|
|----------------------------|---------------------------||----------------------------|---------------------------||----------------------------|---------------------------||------10----------------12--|------12----------------5--||------10----10--10--10--12--|------12----12--12--12--5--||------10----10--10--10--12--|------12----12--12--12--5--|
|-----------------------|-------------------|---------------0---------||-----------------------|-------------------|---------------5---------||-----------------------|-------------------|---------------4---------||------5----------------|-------------------|--2-2-2--2--2--2------2--||------5----5--5--5--5--|--5/---------------|--2-2-2--2--2--2------2--||------5----5--5--5--5--|-------------------|--2-2-2--2--2--2------2--|
|-----------------------|---------------------------------||-----------------------|---------------------------------||-----------------------|---------------------------------||----0--2----9------7-9-|--7-9-7-9-7-9-7-9-7-9-7-9-7-9----||----0--2---------------|------------------------------3--||----0--2---------------|---------------------------------|
|------------------------|---------------0---------|----------------------||------------------------|---------------5---------|----------------------||------------------------|---------------4---------|----------------------||----4--5-------4--5--4--|--2-2-2--2--2--2------2--|----0--2----9------7--||----------5-------------|--2-2-2--2--2--2------2--|----0--2--------------||------------------------|--2-2-2--2--2--2------2--|----0--2--------------|
|-------------------|------------------------|-------------------------------||-------------------|------------------------|-------------------------------||-------------------|------------------------|----------5----------5------5--||----------------9--|----7---9---10---9---7--|--5-5-5-5-5--5-5-5-5-5--5-5-5--||-------------------|------------------------|--3-3-3-3-3--3-3-3-3-3--3-3-3--||-------------------|------------------------|-------------------------------|
|-------------------------|-------------------------------||-------------------------|-------------------------------||----5--4--7--------------|----------5----------5------5--||-------------5--7--5--4--|--5-5-5-5-5--5-5-5-5-5--5-5-5--||-------------------------|--3-3-3-3-3--3-3-3-3-3--3-3-3--||-------------------------|-------------------------------|
|-------------------------|-----------------------|-------------------------||-------------------------|-----------------------|-------------------------||----5--4--7--------------|-----------------------|----5--4--0--2--4--2--0--||-------------5--7--5--4--|--2----2-------2----2--|-------------------------||-------------------------|--2----2----2--2----2--|-------------------------||-------------------------|--2----2----2--2----2--|-------------------------|
|-----------------------|-------------------------||-----------------------|-------------------------||-----------------------|----5--4--0--2--4--2--0--||--2----2-------2----2--|-------------------------||--2----2----2--2----2--|-------------------------||--2----2----2--2----2--|-------------------------|
|-------------------------------|-------------------------||-------------------------------|-------------------------||----------5----------5------5--|----5--4--7--------------||--5-5-5-5-5--5-5-5-5-5--5-5-5--|-------------5--7--5--4--||--3-3-3-3-3--3-3-3-3-3--3-3-3--|-------------------------||-------------------------------|-------------------------|
|-------------------------------|-------------------------||-------------------------------|-------------------------||----------5----------5------5--|----5--4--7--------------||--5-5-5-5-5--5-5-5-5-5--5-5-5--|-------------5--7--5--4--||--3-3-3-3-3--3-3-3-3-3--3-3-3--|-------------------------||-------------------------------|-------------------------|
|-----------------------|-------------------------|-----------------------||-----------------------|-------------------------|-----------------------||-----------------------|----5--4--0--2--4--2--0--|-----------------------||--2----2-------2----2--|-------------------------|--2----2-------2----2--||--2----2----2--2----2--|-------------------------|--2----2----2--2----2--||--2----2----2--2----2--|-------------------------|--2----2----2--2----2--|
|-------------------------|-------------------|------------------||-------------------------|-------------------|------------------||----5--4--0--2--4--2--0--|-------------------|------------------||-------------------------|--0----------------|------------------||-------------------------|--0----------------|------------------||-------------------------|--0----------------|------------------|
|-------------------|--0----------------|-------------------|------------------||-------------------|--5----------------|-------------------|------------------||-------------------|--4----------------|-------------------|------------------||--2----------------|--2----------------|--0----------------|------------------||--2----------------|--2----------------|--0----------------|------------------||--2----------------|--2----------------|--0----------------|------------------|
|--------------------------|-------------------------||--------------------------|-------------------------||--------------------------|-------------------------||--2------2----------------|-------------------------||--2------2----10--10--10--|--10--9--9--9--9--9~-----||--2------2----10--10--10--|--10--9--9--9--9---------|
|------------------------------|---------------------------||------------------------------|---------------------------||------------------------------|---------------------------||--10----10----------------12--|------12----------------5--||--10----10----10--10--10--12--|------12----12--12--12--5--||--10----10----10--10--10--12--|------12----12--12--12--5--|
|-----------------------|-------------------------|----------------------------||-----------------------|-------------------------|----------------------------||-----------------------|-------------------------|----------------------------||------5-------------7--|----------9----------10--|------10----------------12--||------5----5--5--5--7--|----7--7--9----9--9--10--|------10----10--10--10--12--||------5----5--5--5--7--|----7--7--9----9--9--10--|------10----10--10--10--12--|
|---------------------------|-----------------------||---------------------------|-----------------------||---------------------------|-----------------------||------12----------------5--|------5----------------||------12----12--12--12--5--|------5----5--5--5--5--||------12----12--12--12--5--|------5----5--5--5--5--|
|----------------------------|----------------------------||----------------------------|----------------------------||----------------------------|----------------------------||------------------------10--|------10----------------12--||------------------------10--|------10----10--10--10--12--||--5--7--5--0--8--10--7--10--|------10----10--10--10--12--|
|---------------------------|-----------------------|-------------------------||---------------------------|-----------------------|-------------------------||---------------------------|-----------------------|-------------------------||------12----------------5--|------5-------------7--|----------9----------10--||------12----12--12--12--5--|------5----5--5--5--7--|----7--7--9----9--9--10--||------12----12--12--12--5--|------5----5--5--5--7--|----7--7--9----9--9--10--|
|----------------------------|---------------------------||----------------------------|---------------------------||----------------------------|---------------------------||------10----------------12--|------12----------------5--||------10----10--10--10--12--|------12----12--12--12--5--||------10----10--10--10--12--|------12----12--12--12--5--|
|-----------------------|--------------------------|------|------|------|------||-----------------------|--------------------------|------|------|------|------||-----------------------|--------------------------|------|------|------|------||------5----------------|--------------------------|------|------|------|------||------5----5--5--5--5--|--------------------------|------|------|------|------||------5----5--5--5--5--|--5--7--5--0--8--10--7----|------|------|------|------|
|------|------|------|------|---------------------------||------|------|------|------|---------------------------||------|------|------|------|---------------------------||------|------|------|------|--0--7--9--0--9--12--0--7--||------|------|------|------|---------------------------||------|------|------|------|---------------------------|
|---------------------------|---------------------------||---------------------------|---------------------------||---------------------------|---------------------------||--9--0--9--12--0--7--9--7--|--0--7--9--0--9--12--0--7--||---------------------------|---------------------------||---------------------------|---------------------------|
|---------------------------|---------------------------||---------------------------|---------------------------||---------------------------|---------------------------||--9--0--9--12--0--7--9--7--|--0--7--9--0--9--12--0--7--||---------------------------|---------------------------||---------------------------|---------------------------|
|---------------------------|---------------------------||---------------------------|---------------------------||---------------------------|---------------------------||--9--0--9--12--0--7--9--7--|--0--7--9--0--9--12--0--7--||---------------------------|---------------------------||---------------------------|---------------------------|
|---------------------------|---------------------------||---------------------------|---------------------------||---------------------------|---------------------------||--9--0--9--12--0--7--9--7--|--0--7--9--0--9--12--0--7--||---------------------------|---------------------------||---------------------------|---------------------------|
|---------------------------|---------------------------||---------------------------|---------------------------||---------------------------|---------------------------||--9--0--9--12--0--7--9--7--|--0--7--9--0--9--12--0--7--||---------------------------|---------------------------||---------------------------|---------------------------|
|---------------------------|---------------------------||---------------------------|---------------------------||---------------------------|---------------------------||--9--0--9--12--0--7--9--7--|--0--7--9--0--9--12--0--7--||---------------------------|---------------------------||---------------------------|---------------------------|
|---------------------------|---------------------|------------------||---------------------------|---------------------|------------------||---------------------------|---------------------|------------------||--9--0--9--12--0--7--9--7--|--9------7------5----|------------------||---------------------------|---------------------|------------------||---------------------------|---------------------|------------------|
|---------------------------|----------------------------||---------------------------|----------------------------||---------------------------|----------------------------||------------------2--------|------------------3----0----||--2-2-2-2-2-2-2-2-2--------|--2-2-2-2-2-2-2-2-3----0----||--2-2-2-2-2-2-2-2-2--------|--2-2-2-2-2-2-2-2-3----0----|
|---------------------------|----------------------------||---------------------------|----------------------------||---------------------------|----------------------------||------------------2--------|------------------3----0----||--2-2-2-2-2-2-2-2-2--------|--2-2-2-2-2-2-2-2-3----0----||--2-2-2-2-2-2-2-2-2--------|--2-2-2-2-2-2-2-2-3----0----|
|---------------------------|----------------------------||---------------------------|----------------------------||---------------------------|----------------------------||------------------2--------|------------------3----0----||--2-2-2-2-2-2-2-2-2--------|--2-2-2-2-2-2-2-2-3----0----||--2-2-2-2-2-2-2-2-2--------|--2-2-2-2-2-2-2-2-3----0----|
|--------------------------|-----------------------||--------------------------|-----------------------||--------------------------|-----------------------||--2--2--2--3--2--2--2--3--|--2--2--2--2--2--------||--2--2--2--3--2--2--2--3--|--2--2--2--2--2--------||--2--2--2--3--2--2--2--3--|--2--2--2--2--2--------|
|------------------------------|---------------------------||------------------------------|---------------------------||------------------------------|---------------------------||--10----10----------------12--|------12----------------5--||--10----10----10--10--10--12--|------12----12--12--12--5--||--10----10----10--10--10--12--|------12----12--12--12--5--|
|-----------------------|-------------------------|----------------------------||-----------------------|-------------------------|----------------------------||-----------------------|-------------------------|----------------------------||------5-------------7--|----------9----------10--|------10----------------12--||------5----5--5--5--7--|----7--7--9----9--9--10--|------10----10--10--10--12--||------5----5--5--5--7--|----7--7--9----9--9--10--|------10----10--10--10--12--|
|---------------------------|-----------------------|--------------------||---------------------------|-----------------------|--------------------||---------------------------|-----------------------|--------------------||------12----------------5--|------5----------------|----------------10--||------12----12--12--12--5--|------5----5--5--5--5--|----------------10--||------12----12--12--12--5--|------5----5--5--5--5--|----------------10--|
|----------------------------|---------------------------||----------------------------|---------------------------||----------------------------|---------------------------||------10----------------12--|------12----------------5--||------10----10--10--10--12--|------12----12--12--12--5--||------10----10--10--10--12--|------12----12--12--12--5--|
|-----------------------|-------------------------|----------------------------||-----------------------|-------------------------|----------------------------||-----------------------|-------------------------|----------------------------||------5-------------7--|----------9----------10--|------10----------------12--||------5----5--5--5--7--|----7--7--9----9--9--10--|------10----10--10--10--12--||------5----5--5--5--7--|----7--7--9----9--9--10--|------10----10--10--10--12--|
|---------------------------|-----------------------||---------------------------|-----------------------||---------------------------|-----------------------||------12----------------5--|------5----------------||------12----12--12--12--5--|------5----5--5--5--5--||------12----12--12--12--5--|------5----5--5--5--5--|
|----------------------------|----------------------------||----------------------------|----------------------------||----------------------------|----------------------------||------------------------10--|------10----------------12--||------------------------10--|------10----10--10--10--12--||--5--7--5--0--8--10--7--10--|------10----10--10--10--12--|
|---------------------------|-----------------------||---------------------------|-----------------------||---------------------------|-----------------------||------12----------------5--|------5----------------||------12----12--12--12--5--|------5----5--5--5--5--||------12----12--12--12--5--|------5----5--5--5--5--|
|----------------------------|----------------------------||----------------------------|----------------------------||----------------------------|----------------------------||------------------------10--|------10----------------12--||------------------------10--|------10----10--10--10--12--||--5--7--5--0--8--10--7--10--|------10----10--10--10--12--|
|---------------------------|-----------------------||---------------------------|-----------------------||---------------------------|-----------------------||------12----------------5--|------5----------------||------12----12--12--12--5--|------5----5--5--5--5--||------12----12--12--12--5--|------5----5--5--5--5--|
|----------------------------|----------------------------||----------------------------|----------------------------||----------------------------|----------------------------||------------------------10--|------10----------------12--||------------------------10--|------10----10--10--10--12--||--5--7--5--0--8--10--7--10--|------10----10--10--10--12--|
|---------------------------|-----------------------|-------------------------||---------------------------|-----------------------|-------------------------||---------------------------|-----------------------|-------------------------||------12----------------5--|------5-------------7--|----------9----------10--||------12----12--12--12--5--|------5----5--5--5--7--|----7--7--9----9--9--10--||------12----12--12--12--5--|------5----5--5--5--7--|----7--7--9----9--9--10--|
|----------------------------|---------------------------||----------------------------|---------------------------||----------------------------|---------------------------||------10----------------12--|------12----------------5--||------10----10--10--10--12--|------12----12--12--12--5--||------10----10--10--10--12--|------12----12--12--12--5--|
|-----------------------|--------------------------|---------------------------||-----------------------|--------------------------|---------------------------||-----------------------|--------------------------|---------------------------||------5----------------|--------------------------|------------------2--------||------5----5--5--5--5--|--------------------------|--2-2-2-2-2-2-2-2-2--------||------5----5--5--5--5--|--5--7--5--0--8--10--7----|--2-2-2-2-2-2-2-2-2--------|
Tap to rate this tab
 
# A B C D E F G H I J K L M N O P Q R S T U V W X Y Z