Bunkface - Revolusi tab

Revolusi


Lead Part (Distorted guitar)

Key : Major D
      Minor B


Salah email ya takpun add comment to my page ;)
mka.5993@gmail.com


Riff 1 - Intro


| |----------------------------------------------------------------|| |----------------------------------------------------------------|| |----------------------------------------------------------------|| |-------4------4------4------4------4-------4------4------4------|| |--/5-5--5-5-5--5-5-5--5-5-5--5-5-5---5-5-5--5-5-5--5-5-5--------|| |----------------------------------------------------------------|
| |---------------------------------|| |---------------------------------|| |--------7---7-7------------------|| |--9-7-9-7---7-7-5---5-5-7---7-7--|| |--9-7-9-5---5-5-5---5-5-7---7-7--|| |--7-5-7---------3---3-3-5---5-5--|
| |---------------------------------|| |---------------------------------|| |--------7---7-7-9---9-9----------|| |--9-7-9-7---7-7-9---9-9-7---7-7--|| |--9-7-9-5---5-5-7---7-7-7---7-7--|| |--7-5-7-----------------5---5-5--|
| |----------------------------------|| |----------------------------------|| |9-119-1112--119-7---9-119---9-9---|| |x-x-x-x-x---x-x-x---x-x-x---x-x---|| |7-9-7-9-10--9-7-5---7-9-7---7-7---|| |----------------------------------|
| |---------------------------|| |---------------------------|| |-9-12-12-12-12-12-12-12-12-|| |-x-x--x--x--x--x--x--x--x--|| |-7-10-10-10-10-10-10-10-10-|| |---------------------------|
| |-----------------------|| |-----------------------|| |-14-14-14-14-14-x-x-x--|| |-x--x--x--x--x--x-x-x--|| |-12-12-12-12-12-x-x-x--|| |----------------x-x-x--|
| |-----------------------|| |-----------------------|| |-----------------------|| |-9---------------------|| |-9---------------------|| |-7---------------------| Let it ring.
| |--------------------------|| |--------------------------|| |--------------------------|| |-7-7-9\-------------------|| |-7-7-9\-------------------|| |-5-5-7\-------------------|
Lead not played during the first verse. Riff 2 - 2nd line Verse.
| |-------------------------|| |-------------------------|| |-------------------------|| |-7-7-9-------------------|| |-7-7-9-------------------|| |-5-5-7-------------------|
| |---------------------------------------------------|| |---------------------------------------------------|| |-16-16-16-16-16-16-16-16-16-16-16-16-16-16-16-16---|| |-x--x--x--x--x--x--x--x--x--x--x--x--x--x--x--x----|| |-14-14-14-14-14-14-14-14-14-14-14-14-14-14-14-14---|| |---------------------------------------------------|
Riff 3 - Pre Chorus.
| |-----------------------|| |-----------------------|| |--x-x-x-x-x-x-------x--|| |--5-5-7-7-9-9/12\9--9--|| |--x-x-x-x-x-x-------x--|| |-----------------------|
| |--------------------------|| |--------------------------|| |--x--x--x-x--x--x--x--x---|| |--12-12-7-7--5/-7/-9\-7\--|| |--x--x--x-x--x--x--x--x---|| |--------------------------|
| |-----------------------------------|| |-----------------------------------|| |--x-x--x-x--x-x-------x-x-x-x--x---|| |--5-5--7-7--9-9/12\9--9-7-5-7--7~--|| |--x-x--x-x--x-x-------x-x-x-x--x---|| |-----------------------------------|
| |-----------------------|| |-----------------------|| |-----------------------|| |-5-5-xxxx-7-7----------|| |-5-5-xxxx-7-7----------|| |-3-3-xxxx-5-5----------|
Riff 4 - Chorus.
| |------------------------------------|| |------------------------------------|| |-11111111111111111212121212121212---|| |-x-x-x-x-x-x-x-x-x-x-x-x-x-x-x-x----|| |-9-9-9-9-9-9-9-9-1010101010101010---|| |------------------------------------|
| |------------------------------------|| |------------------------------------|| |-11111111111111119-9-9-9-9-9-9-9----|| |-x-x-x-x-x-x-x-x-x-x-x-x-x-x-x-x----|| |-9-9-9-9-9-9-9-9-7-7-7-7-7-7-7-7----|| |------------------------------------|
| |------------------------------------|| |------------------------------------|| |-11111111111111111212121212121212---|| |-x-x-x-x-x-x-x-x-x-x-x-x-x-x-x-x----|| |-9-9-9-9-9-9-9-9-1010101010101010---|| |------------------------------------|
| |------------------------------------|| |------------------------------------|| |-11111111111111119-9-9-9-9-9-9-9----|| |-x-x-x-x-x-x-x-x-x-x-x-x-x-x-x-x----|| |-9-9-9-9-9-9-9-9-7-7-7-7-7-7-7-7----|| |------------------------------------|
| |-----------------------|| |-----------------------|| |-----------------------|| |-9---------------------|| |-9---------------------|| |-7---------------------| Let it ring.
Riff 5 - 2nd verse.
| |--------------------------|| |--------------------------|| |--------------------------|| |-7-7-9\-------------------|| |-7-7-9\-------------------|| |-5-5-7\-------------------|
x x x x x x x x x x x x x x x x x x x x x x x x x x x x| |------------------------------------------------------------------|| |------------------------------------------------------------------|| |--4-7-6-7-4-7-6-7-4-7-6-7-4-7-6-7-4-7-6-7-4-7-6-7-4-7-6-7-6-7-6-7-|| |------------------------------------------------------------------|| |------------------------------------------------------------------|| |------------------------------------------------------------------|
x x x x x x x x x x x x x x x x x x x x x x x x| |----------------------------------------------------------------|| |------------------------------------------------------------5-5-|| |--4-7-6-7-4-7-6-7-4-7-6-7-4-7-6-7-4-7-6-7-4-7-6-7-7-6-7-6-7-----|| |----------------------------------------------------------------|| |----------------------------------------------------------------|| |----------------------------------------------------------------|
Riff 3 - Pre Chorus.
| |-----------------------|| |-----------------------|| |--x-x-x-x-x-x-------x--|| |--5-5-7-7-9-9/12\9--9--|| |--x-x-x-x-x-x-------x--|| |-----------------------|
| |--------------------------|| |--------------------------|| |--x--x--x-x--x--x--x--x---|| |--12-12-7-7--5/-7/-9\-7\--|| |--x--x--x-x--x--x--x--x---|| |--------------------------|
| |-----------------------------------|| |-----------------------------------|| |--x-x--x-x--x-x-------x-x-x-x--x---|| |--5-5--7-7--9-9/12\9--9-7-5-7--7~--|| |--x-x--x-x--x-x-------x-x-x-x--x---|| |-----------------------------------|
| |-----------------------|| |-----------------------|| |-----------------------|| |-5-5-xxxx-7-7----------|| |-5-5-xxxx-7-7----------|| |-3-3-xxxx-5-5----------|
Riff 4 - Chorus.
| |------------------------------------|| |------------------------------------|| |-11111111111111111212121212121212---|| |-x-x-x-x-x-x-x-x-x-x-x-x-x-x-x-x----|| |-9-9-9-9-9-9-9-9-1010101010101010---|| |------------------------------------|
| |------------------------------------|| |------------------------------------|| |-11111111111111119-9-9-9-9-9-9-9----|| |-x-x-x-x-x-x-x-x-x-x-x-x-x-x-x-x----|| |-9-9-9-9-9-9-9-9-7-7-7-7-7-7-7-7----|| |------------------------------------|
| |------------------------------------|| |------------------------------------|| |-11111111111111111212121212121212---|| |-x-x-x-x-x-x-x-x-x-x-x-x-x-x-x-x----|| |-9-9-9-9-9-9-9-9-1010101010101010---|| |------------------------------------|
| |------------------------------------|| |------------------------------------|| |-11111111111111119-9-9-9-9-9-9-9----|| |-x-x-x-x-x-x-x-x-x-x-x-x-x-x-x-x----|| |-9-9-9-9-9-9-9-9-7-7-7-7-7-7-7-7----|| |------------------------------------|
Riff 6 - Pre solo.
x x x x x x x x x x x x x x x x x x x x x x x x x x x x x x x x | |-------------------------------------------------------------------|| |-------------------------------------------------------------------|| |--4-7-6-7-4-7-6-7-4-7-6-7-4-7-6-7-4-7-6-7-4-7-6-7-4-7-6-7-4-7-6-7--|| |-------------------------------------------------------------------|| |-------------------------------------------------------------------|| |-------------------------------------------------------------------|
x x x x x x x x x x x x x x x x x x x x x x x x x x x x x x x x| |-------------------------------------------------------------------|| |-------------------------------------------------------------------|| |--4-7-6-7-4-7-6-7-4-7-6-7-4-7-6-7-4-7-6-7-4-7-6-7-4-7-6-7-4-7-6-7--|| |-------------------------------------------------------------------|| |-------------------------------------------------------------------|| |-------------------------------------------------------------------|
x x x x x x x x x x x x x x x x| |-----------------------------------|| |-----------------------------------|| |--4-7-6-7-4-7-6-7-4-7-6-7-4-7-6-7--|| |-----------------------------------|| |-----------------------------------|| |-----------------------------------|
Riff 7 - Solo.
| |---------------------------------------|| |----------------------101012brbp1012~--|| |------------9911111212-----------------|| |--9911111212---------------------------|| |---------------------------------------|| |---------------------------------------|
| |----10-12b(14)r-12~----|| |--12-------------------|| |-----------------------|| |-----------------------|| |-----------------------|| |-----------------------|
| |-14-12-10-9-12-10-9----10-9-------10-9--------------|| |--------------------12------12-10------12-10--12----|| |----------------------------------------------14~~--|| |----------------------------------------------------|| |----------------------------------------------------|| |----------------------------------------------------|
| |-------------------------------------------------|| |-12-14----14-15----15-17------17------17---------|| |----16~~-----17~~-----19b(21)-19b(21)-19b(21)----|| |-------------------------------------------------|| |-------------------------------------------------|| |-------------------------------------------------|
Riff 4 - Chorus.
| |-0----------------------|| |-0----------------------|| |-0----------------------|| |-0----------------------|| |-0----------------------|| |-0----------------------|
| |------------------------------------|| |------------------------------------|| |-11111111111111111212121212121212---|| |-x-x-x-x-x-x-x-x-x-x-x-x-x-x-x-x----|| |-9-9-9-9-9-9-9-9-1010101010101010---|| |------------------------------------|
| |------------------------------------|| |------------------------------------|| |-11111111111111119-9-9-9-9-9-9-9----|| |-x-x-x-x-x-x-x-x-x-x-x-x-x-x-x-x----|| |-9-9-9-9-9-9-9-9-7-7-7-7-7-7-7-7----|| |------------------------------------|
| |------------------------------------|| |------------------------------------|| |-11111111111111111212121212121212---|| |-x-x-x-x-x-x-x-x-x-x-x-x-x-x-x-x----|| |-9-9-9-9-9-9-9-9-1010101010101010---|| |------------------------------------|
| |------------------------------------|| |------------------------------------|| |-11111111111111119-9-9-9-9-9-9-9----|| |-x-x-x-x-x-x-x-x-x-x-x-x-x-x-x-x----|| |-9-9-9-9-9-9-9-9-7-7-7-7-7-7-7-7----|| |------------------------------------|
| |------------------------------------|| |------------------------------------|| |-11111111111111111212121212121212---|| |-x-x-x-x-x-x-x-x-x-x-x-x-x-x-x-x----|| |-9-9-9-9-9-9-9-9-1010101010101010---|| |------------------------------------|
| |------------------------------------|| |------------------------------------|| |-11111111111111119-9-9-9-9-9-9-9----|| |-x-x-x-x-x-x-x-x-x-x-x-x-x-x-x-x----|| |-9-9-9-9-9-9-9-9-7-7-7-7-7-7-7-7----|| |------------------------------------|
| |------------------------------------|| |------------------------------------|| |-11111111111111111212121212121212---|| |-x-x-x-x-x-x-x-x-x-x-x-x-x-x-x-x----|| |-9-9-9-9-9-9-9-9-1010101010101010---|| |------------------------------------|
| |------------------------------------|| |------------------------------------|| |-11111111111111119-9-9-9-9-9-9-9----|| |-x-x-x-x-x-x-x-x-x-x-x-x-x-x-x-x----|| |-9-9-9-9-9-9-9-9-7-7-7-7-7-7-7-7----|| |------------------------------------|
| |-----------------------|| |-----------------------|| |-----------------------|| |-9---------------------|| |-9---------------------|| |-7---------------------| Let it ring.
Riff 8 - Outro.
| |--------------------------|| |--------------------------|| |--------------------------|| |-7-7-9\-------------------|| |-7-7-9\-------------------|| |-5-5-7\-------------------|
Tap to rate this tab
 
# A B C D E F G H I J K L M N O P Q R S T U V W X Y Z