Burden Of A Day - Monsters Among Us tab

Burden Of A Day
"Monsters Among Us"
Blessed Be Our Ever After (2008)

I noticed someone tabbed out "Sorry seacrest its caseys countdown" awesome.
I tabbed out their first album Pilots & Paper Airplanes both guitars, and
started on Blessed be Our Ever After. So far i have the "intro", "Pt. 2
Sometimes They Do", "Battle For Hoth", and now i bring you "Monsters Among Us"
Enjoy!

Drop C

Legend:

x-mute string
h-hammer on
p-pull off
b-bend
.-palm mute
~-let note ring
/-slide up
\-slide down
t-tremelo pick

Guitar 1:

(x4) |(play 1st, 2nd, 3rd time)D----(x3)--------|--------------------------------|A----------------|--------------------------------|F----------------|-10/141414\121212\9999\7/101010-|C-00x------------|--x/-x-x-x\-x-x-x\xxxx\x/-x-x-x-|G-00x-8h10p0-7p0-|--8/121212\101010\7777\5/-8-8-8-|C-00x------------|--------------------------------|
(play 4th time)------------------------------------|------------------------------------|-10/141414\121212-------------------|--x/-x-x-x\-x-x-x-xxxxxxxx-0~-0~-0x-|--8/121212\101010-xxxxxxxx-0~-0~-0x-|------------------xxxxxxxx-0~-0~-0x-|
-----------------------------------------------|------------------66666666666666666666---------|------------------99999999999999999999---------|------------------(played by 2nd gtr.)---------|-0-6-5-3-0-2-3-5--(00-0--0---00-0--0-)-0-6-5-3-|-0-6-5-3-0-2-3-5--(00-0--0---00-0--0-)-0-6-5-3-| . . . . . . . . .. . . .. . . . . . .
(x4)------------------------------------------------|------------------------------------------------|----------------------------------3333-----5555-|---------------666666-------------3333-333-5555-|---------------666666-------3h5p0-1111-333-3333-|-0-3p0-10h12/5-666666-0h5p0------------333------|
----------(x2)--------|---------(x2)---------|----------------------|----------------------|----------------------|----------------------|-8x-8x--8x-8x-8x-8888-|-0x-0x--0x-0x-0x-0000-|-8x-8x--8x-8x-8x-8888-|-0x-0x--0x-0x-0x-0000-|-8x-8x--8x-8x-8x-8888-|-0x-0x--0x-0x-0x-0000-|
(strum fast)---------------------------|---------------------------|-10-12-15-14---------------|--x--x--x--x--8-7-5-10-8-7-|--8-10-13-12---------------|---------------------------|
(with delay)-------------------13-12--------------------------------------|---------------13~--------13~---------------------------------|-14~-12h14-15~------------------------------------------------|-------------------------------14h15-17-15-14~--14h15p14h15---|--------------------------------------------------------------|--------------------------------------------------------------|
(with delay)-------------------------------------------------|-------------------------------------------------|---------------------------12t-14t----15t-17t----|-12t--14t--12t-14t-15t---------------------------|-------------------------------------------------|-------------------------------------------------|
(x2)----------------------------------------------------|----------------------------------------------------|-----------------------------------------9-9h10p9---|-----------------------------------10------------10-|-0---------7h8---8h10---0-8-------------------------|-0--000000-----0------0-0-8-888888----88------------| ...... . . ...... ..
(x5)(with delay)----------13-12-----------------------|-------13-------13--------------------|-14-12----------------------12--------|-------------------12-14-15----15-14--|--------------------------------------|--------------------------------------|
-------------------------------------------------------------|-------------------66666666--------------------6666/11111111-|-------------------99999999--------------------9999/14141414-|-------------------------------------------------------------|-0x-0x-7h8------------------0x-0x--7h8-----------------------|-0x-0x-----0-8p0-0----------0x-0x------0-8p0-0---------------| . . . .
----------------------------------------------------------------|---------------------66666666---------------------6666/11111111-|-------12/14---------99999999-------12/14---------9999/14141414-|--------x/-x-------------------------x/-x-----------------------|-0x-0x-10/12------------------0x-0x-10/12-----------------------|-0x-0x-------0-8p0-0----------0x-0x-------0-8p0-0---------------| . . . .
(0's in parenthesis made with effect/editing)--------------------------------------------------|--------11b~----------------11b~------------------|--------14b~----------------14b~------------------|--------------------------------------------------|-0x-0x-------0x-0x---0x-0x-------(0x0x0x0x)-0x-0x-|-0x-0x-------0x-0x---0x-0x-------(0x0x0x0x)-0x-0x-|
--------------------------------------------------|-------------------66666666--------------------6~-|-------------------99999999--------------------9~-|--------------------------------------------------|-0x-0x-7h8------------------0x-0x--7h8------------|-0x-0x-----0-8p0-0----------0x-0x------0-8p0-0----| . . . .
Guitar 2:
-------------------------------|-------------------------------|-------------------------------|-------------------------------|-00x-00x-00x--88-88-8--88-88-8-|-00x-00x-00x--88-88-8--88-88-8-|
(x3) |(play 1st, 2nd time)|(play 4th time)-----(x3)------|--------------------|----------------------------|---------------|--------------------|----------------------------|---------------|--------------------|----------------------------|-----7h8p0-5p0-|--------------------|----------xxxxxxxx-0~-0~-0x-|-00x-----------|-88-88-8--88-88-8---|-88-88-8--xxxxxxxx-0~-0~-0x-|-00x-----------|-88-88-8--88-88-8---|-88-88-8--xxxxxxxx-0~-0~-0x-|
---------------------------(played by 3rd gtr)---|---------------------------(111111111111)--------|---------------------------(141414141414)--------|-------------------------------------------------|-0-6-5-3-0-2-3-5--00-0--0---00-0--0----0-6-5-3---|-0-6-5-3-0-2-3-5--00-0--0---00-0--0----0-6-5-3---| . . . . . . . . .. . . .. . . . . . .
(x2)(goes with gtr 1)------------------------------|------------------------------|------------------------------|-6666666---88888-333-10101010-|-6666666---88888-333-10101010-|-6666666---88888-333-10101010-|
(x2)------------------------------------------------------------|------------------------------------------------------------|------------------------------------------777777/101010\999-|------------------666666------------------xxxxxx/-x-x-x\xxx-|-0---5p0-7h8p0----666666--0---5p0-7h8p0---555555/-8-8-8\777-|-0-0-----------0--666666--0-0-----------0-------------------| . . . .
----------(x2)--------|---------(x2)---------|----------------------|----------------------|----------------------|----------------------|-8x-8x--8x-8x-8x-8888-|-0x-0x--0x-0x-0x-0000-|-8x-8x--8x-8x-8x-8888-|-0x-0x--0x-0x-0x-0000-|-8x-8x--8x-8x-8x-8888-|-0x-0x--0x-0x-0x-0000-|
(strum fast)-----------------------------|------(x2)-------|-----------------------------|-----------------|-7-9-12-10-------------------|-----------------|-x-x--x--x--12-10-8-13-12-10-|-0~--0~--8~--8~--|-5-7-10--8-------------------|-0~--0~--8~--8~--|-----------------------------|-0~--0~--8~--8~--|
(x4)--------------------------------------------------------|--------------------------------------------------------|--------------------------------------------------------|-----------------------------------------10-10h12p10----|-0---------3h5---5h7----0-8--------12----------------12-|-0--000000-----0------0-0-8-888888----88----------------| ...... . . ...... ..
(x3)(with delay) |(gtr 3, hear in bg of gtr 1, 2)------8-10-8--------------------|-----------------|-------------10-----------------|------(x2)-------|-10-9-------------------9-------|-----------------|----------------8-10-12---12-10-|-0000000-8888888-|--------------------------------|-0000000-8888888-|--------------------------------|-0000000-8888888-|
-------------------------------------------------------------|-------------------66666666--------------------6666/11111111-|-------------------99999999--------------------9999/14141414-|-------------------------------------------------------------|-0x-0x-3h5------------------0x-0x--3h5-----------------------|-0x-0x-----0-3p0-0----------0x-0x------0-3p0-0---------------| . . . .
---------------------------------------------------------------|-------5/6-----------66666666--------5/6---------6666/11111111-|-------x/x-----------99999999--------x/x---------9999/14141414-|-------2/3---------------------------2/3-----------------------|-0x-0x-------------------------0x-0x---------------------------|-0x-0x-------0-3p0-0-----------0x-0x-------0-3p0-0-------------| . . . .
(0's in parenthesis made with effect/editing)--------------------------------------------------|--------11b~----------------11b~------------------|--------14b~----------------14b~------------------|--------------------------------------------------|-0x-0x-------0x-0x---0x-0x-------(0x0x0x0x)-0x-0x-|-0x-0x-------0x-0x---0x-0x-------(0x0x0x0x)-0x-0x-|
-----------------------------------------------------|-------------------66666666-----------------------6~-|-------5/7---------99999999--------12/14----------9~-|-------x/x--------------------------x/-x-------------|-0x-0x-3/5------------------0x-0x--10/12-------------|-0x-0x-----0-3p0-0----------0x-0x--------0-8p0-0-----| . . . .
Tap to rate this tab
 
# A B C D E F G H I J K L M N O P Q R S T U V W X Y Z